Cifra da música: Tango - Dead Fish

Esse cifra de Dead Fish já foi acessado por 839 pessoas.

Comente

A música Tango fez muito sucesso quando foi gravada por Dead Fish. Quer conhecer a letra dela? Veja a letra de Tango e cante.

Veja também o vídeo da música tocada.


#INTRO.
GUITARRA #1 (G-Bb-C-D#->-D)
GUITARRA #2
e|---------------------------------------------------------------------------|
B|---------------------------------------------------------------------------|
G|---------------------------------------------------------------------------|
D|-10-10-8-8-8-7-7-7-5-5-5-10-10-10-8-8-8-7-7-7-5-5-5-10-10-10-8-8-8-7-7-7---|
A|---------------------------------------------------------------------------|
E|---------------------------------------------------------------------------|

e|---------------------------------------------------------------------------|
B|---------------------------------------------------------------------------|
G|---------------------------------------------------------------------------|
D|-5-5-5-10-10-10-8-8-8-10-10-10-8-8-8---------------------------------------|
A|---------------------------------------------------------------------------|
E|---------------------------------------------------------------------------|

GUITARRA #2 - VAMOS CHAMAR ESTA PARTE DE (*)
faz esta parte no final de cada nota da GUITARRA #1
e|--------------3----3---...-------------------------------------------------|
B|----------------33---33...-------------------------------------------------|
G|---------------------------------------------------------------------------|
D|---------------------------------------------------------------------------|
A|---------------------------------------------------------------------------|
E|---------------------------------------------------------------------------|

PRE-REFRÃO
GUITARRA #2 
e|-----------------------------6----10----------------6----10----------------|
B|------------------7h8p7-10-7---10----8-7-7h8p7-10-7---10-------------------|
G|---------------------------------------------------------------------------|
D|---------------------------------------------------------------------------|
A|---------------------------------------------------------------------------|
E|---------------------------------------------------------------------------|

GUITARRA #1 (*=8 tempo)  (**=4 tempos)
e|---------------------------------------------------------------------------|
B|---------------------------------------------------------------------------|
G|-10*--12*---3-3/7-7/8-8/10**-----------------------------------------------|
D|-x*---x*----x-x/x-x/x-x/x**------------------------------------------------|
A|-8*--10*----1-1/5-5/6-6/8**------------------------------------------------|
E|---------------------------------------------------------------------------|
tu é a vida real....

GUITARRA #2
e|---3-3-3-3...--------------------------------------------------------------|
B|---3-3-3-3...--------------------------------------------------------------|
G|---------------------------------------------------------------------------|
D|---------------------------------------------------------------------------|
A|---------------------------------------------------------------------------|
E|---------------------------------------------------------------------------|
tu és a vida real....

CHORUS
GUITARRA #2
e|---------------------------------------------------------------------------|
B|-7h9p7-7h9p7-7h9p7...------------------------------------------------------|
G|---------------------------------------------------------------------------|
D|---------------------------------------------------------------------------|
A|---------------------------------------------------------------------------|
E|---------------------------------------------------------------------------|
GUITARRA #1 (*=8 tempo)  (**=4 tempos)
e|---------------------------------------------------------------------------|
B|---------------------------------------------------------------------------|
G|-10*--12*---3-3/7-7/8-8/10**-----------------------------------------------|
D|-x*---x*----x-x/x-x/x-x/x**------------------------------------------------|
A|-8*--10*----1-1/5-5/6-6/8**------------------------------------------------|
E|---------------------------------------------------------------------------|
tu é a vida real....
CHORUS
GUITARRA #1 (*=8 tempo)  (**=4 tempos)
e|---------------------------------------------------------------------------|
B|---------------------------------------------------------------------------|
G|-10-108-87-75-5/10*---3-3/7-7/8-8/10**----------------------------------|
D|--x--xx-xx-xx-x/x*----x-x/x-x/x-x/x**-----------------------------------|
A|--8--86-65-53-3/12*---1-1/5-5/6-6/8**-----------------------------------|
E|---------------------------------------------------------------------------|


(G|-Bb-C-D#-D) (*)
foi difícil entender
impossível de acreditar
uma vida devotada embasada em sobreviver
mais que qualquer ideal sobressai o teu amor
não há ruas, partidos e regras para te deter
(G|-F-D#-C) - TOCAR ABAFADO
mais que uma instituição
feita para deformar

(D#-C-Bb-E)
#PRE-REFRÃO
liberdade e emoção me permitiram sonhar
#FIM DO PRE-REFRÃO

(G|-Bb-C-D#-D) (*)
tu és a vida real, 
e sempre esteve de pé,
nunca reclamou da batalha que é criar.
#REFRÃO
sociedade e discriminação,
cabeça erguida a enfrentar,
nenhum patriarcado ou família te fizeram calar.
#FIM DO REFRÃO

#INTRO. 1X

(G|-Bb-C-D#-D) (*)
não há nada a provar,
eu já posso entender.
(D#-C-Bb-E) (*)
o que pode ser mais rebelde depois de você?
forte, viva e a sorrir
sua vitória deve insultar
a todos que preferem te ver a chorar.

(G|-F-D#-C) - TOCAR ABAFADO

acredite aprendi demais,
seu silêncio constrangedor.
#PRE-REFRÃO
liberdade é muito mais que palavras a dizer.
#FIM PRE-REFRÃO

(G|-Bb-C-D#-D) (*)- mais rápido
gostaria de agradecer, 
espero um dia retribuir,
coração do meu céu, por favor, seja feliz!
#REFRÃO
agora vem a tua vez! usuflua do teu amor, 
sua prole sobreviveu e só resta agradecer...
#FIM REFRÃO

PARA FINALIZAR TOCAR INTRO 2X

____________________________________________



Quer fazer uma correção nesta cifra?







    Comentários (0) Postar um Comentário

    Nenhum comentário encontrado. Seja o primeiro!