Cifra da música: Sua Bandeira - Dead Fish

Esse cifra de Dead Fish já foi acessado por 547 pessoas.

Comente

A música Sua Bandeira fez muito sucesso quando foi gravada por Dead Fish. Quer conhecer a letra dela? Veja a letra de Sua Bandeira e cante.

Veja também o vídeo da música tocada.


Tom: A
Intro: A  - F (2x)

SOLO DE ENTRADA

E|---------------------------------------|
B|---------------------------------------|
G|--------5------------------------------|
D|--5-7-7---7-5-7--7-7-7-7---------------|
A|---------------------------------------|
E|---------------------------------------|

A                                F      
Te avisaram mas vc fingiu nao entender,
Agora é tarde para tentar voltar atrás!
A sua bandeira se tornou prisão,
Posso sentir o ódio em seu brasão.
Não prefiro não, quero lutar mas em outra direção!

A                  C               G
E se tiveram esperanças, se tiraram seu emprego, se 
   A
pediram pra esquecer.

E|---------------------------------------|
B|---------------------------------------|
G|--------5------------------------------|
D|--5-7-7---7-5-7--7-7-7-7---------------|
A|---------------------------------------|
E|---------------------------------------|

A                   F
Vc não quiz se aprofundar,
o verdadeiro motivo seu orgulho vai esconder.
O grande pai vai te falar,
São histórias vindas de outro lugar.
Amor e curação, é o maior orgulho, mas sera em vão!
A                  C                 G          A
Pois seu pano limpo, com listras e estrelas, me fez lembrar o Mickey Mouse.
A                         F
Não vou cantar(não vou cantar), 
esse hino que vc quer me obrigar.
O mundo todo é como uma nação.
Se chama humanidade mas parece sofrer em vão.
Sou um cidadão!
Quero igualdade não ser o chefão!


Quer fazer uma correção nesta cifra?







    Comentários (0) Postar um Comentário

    Nenhum comentário encontrado. Seja o primeiro!