Cifra da música: Sonho Médio - Dead Fish

Esse cifra de Dead Fish já foi acessado por 892 pessoas.

Comente

A música Sonho Médio fez muito sucesso quando foi gravada por Dead Fish. Quer conhecer a letra dela? Veja a letra de Sonho Médio e cante.

Veja também o vídeo da música tocada.


Versão 1
-======-

Intro: C#, A, B, Em  C#, A, B 

Riff 1:
Guitarra 1: A, Ab (corda D)
Guitarra 2: A, Ab (corda E)

Em (corda D)               A(corda D) Ab(corda D)   Riff 1
Amanheceu mais uma vez, é hora de acordar para vencer,
e ter o que falar, alguém para mandar, uma vida pra ordenar, poder acumular 
e ai então viver, viver e prosperar, mais nada a pensar, me, myself and I,
e assim permanecer, credicard e status quo é tudo que penso ser, ilusão é questionar. 


(C#, B, A, Em x4)                                                               Em (corda D) A, Ab (corda D)
O sonho médio vai, vai te conquistar e todo dia iremos juntos ao shopping pra gastar. 

 Riff 1
Ter e sempre acreditar, princípio meio e fim, a hipocrisia vai vencer, vou sorrir para você,
será uma festa em meio a caos e as pessoas feias pagarão, 
pois somos os eleitos, pelo menos achamos ser, nossa raça é superior, pois vou fingir ser daquela cor,
Roberto  Campos é o nosso gurú e para sempre seremos liberais,
C#       B        Em    C#  B  Em
        pra trabalhar,    pra viver, 
C#        B                        Em           C#     B                  Em      
não me importa se meus filhos não terão educação eles tem que ter dinheiro e visual,
 
C#, B, A, Em x4                                                                  Em(corda D)
O sonho médio vai, vai te conquistar, mentalidade de plástico e uma imagem a zelar. 

Pra terminar: A, Ab (corda D) e Em (corda E).







Versão 2
-======-


ACORDES USADOS:
    C#  Em  Eb  A   B   Bb
e |---------------------------------------------------------------------------------|
B |---------------------------------------------------------------------------------|
G |-6-------9-------4---------------------------------------------------------------|
D |-6---2---9---7---4---9-----------------------------------------------------------|
A |-4---2---7---7---2---9-----------------------------------------------------------|
E |-----0-------5-------7-----------------------------------------------------------|

GUITARRA 1 E BAIXO

Intro: C#, A, B, Em -- 2x

Verso: Eb, Bb, A -- 2x

Refrão: C#, A, B, Em -- 4x

Verso: Eb, Bb, A -- 2x

Ponte: C#, B, Em, A -- 4x

Refrão: C#, A, B, E -- 4x

Final: Em -- 1x


GUITARRA 2
Intro: C#, A, B, Em -- 2x

Verso: e |--5--5--5--5--5--4--4--4--4--4--------------------------------------------|
       B |--5--5--5--5--5--5--5--5--5--5--------------------------------------------|
       G |--------------------------------------------------------------------------|
       D |--------------------------------------------------------------------------|
       A |--------------------------------------------------------------------------|
       E |--------------------------------------------------------------------------|

Refrão: C#, A, B, Em -- 4x

Verso: e |--5--5--5--5--5--4--4--4--4--4--------------------------------------------|
       B |--5--5--5--5--5--5--5--5--5--5--------------------------------------------|
       G |--------------------------------------------------------------------------|
       D |--------------------------------------------------------------------------|
       A |--------------------------------------------------------------------------|
       E |--------------------------------------------------------------------------|

Ponte: e |--------------------------------------------------------------------------|
       B |--5--5--5--5--5--4--4--4--4--4--8--8--8--8--8--10--10--10--10--10---------|
       G |--------------------------------------------------------------------------|
       D |--------------------------------------------------------------------------|
       A |--------------------------------------------------------------------------|
       E |--------------------------------------------------------------------------|

Ponte: e |--------------------------------------------------------------------------|
       B |--5--5--5--5--5--4--4--4--4--4--7--7--8--8--9--9--10--10------------------|
       G |--------------------------------------------------------------------------|
       D |--------------------------------------------------------------------------|
       A |--------------------------------------------------------------------------|
       E |--------------------------------------------------------------------------|

Refrão: C#, A, B, Em -- 4x

Final: e |--5--5--5--5--5--4--4--4--4--4--------------------------------------------|
       B |--5--5--5--5--5--5--5--5--5--5--------------------------------------------|
       G |--------------------------------------------------------------------------|
       D |--------------------------------------------------------------------------|
       A |--------------------------------------------------------------------------|
       E |--------------------------------------------------------------------------|

Sonho Médio

Amanheceu mais uma vez, é hora de acordar para vencer, e ter o que falar, alguém para 
mandar, uma vida pra ordenar, poder acumular e ai então viver, viver e prosperar, ma-
is nada a pensar, me, myself and I, e assim permanecer, credicard e status quo é tudo
que penso ser, ilusão é questionar. 

O sonho médio vai, vai te conquistar e todo dia iremos juntos ao shopping pra gastar. 

Ter e sempre acreditar, princípio meio e fim, a hipocrisia vai vencer, vou sorrir pa-
ra você, será uma festa em meio a caos e as pessoas feias pagarão, pois somos os ele-
itos, pelo menos achamos ser, nossa raça é superior, pois vou fingir ser daquela cor,
Roberto  Campos é o nosso gurú e para sempre seremos liberais, pra trabalhar, pra vi-
ver, não me importa se meus filhos não terão educação eles tem que ter dinheiro e vi-
sual. 

O sonho médio vai, vai te conquistar, mentalidade de plástico e uma imagem a zelar. 





Versão 3
-======-

INTRO C# A B E


Amanheceu mais uma vez
                          C# 
é hora de acordar para vencer
              A
e ter o que falar
               E
alguém para mandar
                 B 
uma vida pra ordenar
           C#                A
poder acumular, e aí então viver
              E
viver e prosperar
               B
mais nada a pensar
               C#
me, my self and I
                A
e assim permanecer
                   E
credcard e status quo
                    B
é tudo o que penso ser
                 C#
ilusão é questionar

               A    B            E
O sonho medio vai, vai te conquistar
  C#         A               B              E
e todo dia iremos juntos ao shopping pra gastar


C#                 A
Ter e sempre acreditar
                   E
princípio, meio e fim
                     B
a hipocrisia vai vencer
                  C#
vou sorrir para você
                   A      
será uma festa em meio a caos
                        E
e as pessoas feias pagarão
                B 
pois somos os eleitos
                    C#
pelo menos achamos ser
                   A
nossa raça é superior
                             E
pois vou fingir ser daquela cor
                        B
Roberto Campos é o nosso guru
                          C#
e pra sempre seremos liberais
          A   E       B
pra trabalhar, pra viver
C#                     A
  não importa se meus filhos não terão educação
E                     B
  eles tem que ter dinheiro e visual

C#               A    B             E
  O sonho medio vai, vai te conquistar
   C#           A              B          E
mentalidade de plástico e uma imagem a zelar

-------------------
Cultura Capixaba
Homengem a Marcos e Paulo... HUHU
------------------------------



Quer fazer uma correção nesta cifra?







    Comentários (0) Postar um Comentário

    Nenhum comentário encontrado. Seja o primeiro!