Cifra da música: Me Ensina - Dead Fish

Esse cifra de Dead Fish já foi acessado por 682 pessoas.

Comente

A música Me Ensina fez muito sucesso quando foi gravada por Dead Fish. Quer conhecer a letra dela? Veja a letra de Me Ensina e cante.

Veja também o vídeo da música tocada.


Intro:B A  2x

(B-A) (Abafado)
Preciso acordar e não me notar,
preciso vencer sem sequer ganhar,
preciso precisar sem sequer ter.

(B-A)
Eu quero ser e não perceber,
vou te amar e não te ter,
entender sem estudar.

Refrão
e|----------------------------------|
B|----------------------------------|
G|-4/6-6-642-2-2-2---------4-2-2-2| 4x
D|-4/6-6-642-2-2-2-4-4-4-4-4-2-2-2| (2x durante o refrao e 2x depois)
A|-2/4-4-42-0-0-0-4-4-4-4-2-0-0-0|
E|-------------------2-2-2-2--------|

Me ensina a tirar essas marcas e encontrar ...
o meu verdadeiro...
me ensina.

(B-A)
Vou te olhar de frente então,
enfrentar a contradição,
sem minha máscara vou sorrir.

(B-A)(Abafado)
Marcas de uma educação, 
ranços de uma herança que se vão, 
o poder de observar...

(B-A)
Observar e não ter poder, 
um verbo que devo calar , 
as palavras que você não vai ler...

Refrão
e|----------------------------------|
B|----------------------------------|
G|-4/6-6-642-2-2-2---------4-2-2-2| 4x
D|-4/6-6-642-2-2-2-4-4-4-4-4-2-2-2| (2x durante o refrao e 2x depois)
A|-2/4-4-42-0-0-0-4-4-4-4-2-0-0-0|
E|-------------------2-2-2-2--------|

Me ensina a tirar essas marcas e encontrar ...
o meu verdadeiro...
me ensina.

e|---------------------------------------------------------------|
B|---------------------------------------------------------------|
G|----------------------------------------------------------9--9-|
D|-4-4-4-x-x-4-4-4-x-x-7-7-7-x-x-7-7-7-x-x-4-4-4-x-x-4-4-4--9--9-|  2x
A|-4-4-4-x-x-4-4-4-x-x-7-7-7-x-x-7-7-7-x-x-4-4-4-x-x-4-4-4--7--7-|
E|-2-2-2-x-x-2-2-2-x-x-5-5-5-x-x-5-5-5-x-x-2-2-2-x-x-2-2-2-------|

E agora amor,
vou poder ser feliz , 
esqueci teu nome. 
seremos eu de verdade, 
esqueci meu nome.

(B-A)
E aprenderemos diariamente a desaprender 
e a viver como realmente somos.






Quer fazer uma correção nesta cifra?







    Comentários (0) Postar um Comentário

    Nenhum comentário encontrado. Seja o primeiro!