Cifra da música: Cidadão Padrão - Dead Fish

Esse cifra de Dead Fish já foi acessado por 668 pessoas.

Comente

A música Cidadão Padrão fez muito sucesso quando foi gravada por Dead Fish. Quer conhecer a letra dela? Veja a letra de Cidadão Padrão e cante.

Veja também o vídeo da música tocada.


# intro #A&B 2X
E------------------------------------------------|
B------------------------------------------------|
G-------4-5-5-4-5-5-----------4-5-5-4-5-5--------|
D---7-7-4-5-5-4-5-5-5-5-5-7-7-4-5-5-4-5-5-5%-----|
A---7-7-2-3-3-2-3-3-5-5-5-7-7-2-3-3-2-3-3-5%-----|
E---5-5-------------3-3-3-5-5-------------3%-----|

# verse #A&B 2X *=play 3X  #verse2 A&B 2X *=play 3X with some palm-muting
E-------------------------|----------------------|
B--------*-------*--------|--------*-------*-----|
G----*--5----*--7---------|----*--5----*--7------|
D---7---5---5---7---------|---7---5---5---7------|
A---7---3---5---5---------|---7---3---5---5------|
E---5-------3-------------|---5-------3----------|

# verse3 #A 2X *=play 3X #=play 16X with hard palm-muting
E-----------------------------------|
B--------*-------*------------------|
G----*--5----*--7----#--------------| 


Quer fazer uma correção nesta cifra?







    Comentários (0) Postar um Comentário

    Nenhum comentário encontrado. Seja o primeiro!