Cifra da música: Afasia - Dead Fish

Esse cifra de Dead Fish já foi acessado por 811 pessoas.

Comente

A música Afasia fez muito sucesso quando foi gravada por Dead Fish. Quer conhecer a letra dela? Veja a letra de Afasia e cante.

Veja também o vídeo da música tocada.


# intro #A X???
E-----------------------------------------|
B-----------------------------------------|
G-----------------------------------------|
D—4-4-4-4-4-4-4-4-4-4-4-4-4-4-4-4-4-4-4-4-4-4-4-----|
A—2-2-0-0-2-2-0-0-2-2-0-0-2-2-0-0-2-2-0-0-2-2-0-----|
E-----------------------------------------|

# intro #B b=bend-up
E-/-quando entrar o baixo----------------|
B-----------------------------------------|
G-----------------------------------------|
D--------------9b-9b-9b-9b---------------|
A--/2-2----------------------------------|
E-----------------------------------------|

# intro #A&B X???
E-----------------------------------------|
B-----------------------------------------|
G-----------------------------------------|
D—4-4-4-4-4-4-4-4-4-4-4-4-4-4-4-4-4-4-4-4-4-4-4-----|
A—2-2-0-0-2-2-0-0-2-2-0-0-2-2-0-0-2-2-0-0-2-2-0-----|
E-----------------------------------------|

# verse #A *=play 24x #=play 12x
E-----------------------------------------------------|
B---*---#------------------------------------#--------|
G--4---7----#--4-4-4-4-7-4-4-4-4-7-4-4-4-4-7-4-4-4-4-7--7----#----|
D--4---7---7--------------------------------7---7-----|
A--2---5---7---2-2-2-2-5-2-2-2-2-5-2-2-2-2-5-2-2-2-2-5--5---7-----|
E----------5------------------------------------5-----|

# verse #B X2 *=play 6x
E--------------------------------|
B---*-*-*-*-*-*-*MMMM------------|
G--4-6-7-9-4-6-7-7-7-7-7-9-1-1-9-9-----|
D--------------------------------|
A--2-4-5-7-2-4-5-5-5-5-5-7-9-7-7-----|
E--------------------------------|

# chorus #A *=play 8x #=play 4x **=play 8x with some palm-muting
E-------------------------------------------|
B-------*---#---#-----------*---------------|
G---*--4---7--12----*--*---4----**--#---#---|
D--5---4---7-------7---5---4---2---5---7----|
A--5---2---5--10---7---5---2---2---5---7----|
E--3---------------5---3-------0---3---5----|

# chorus #B X16
E--------9---------|
B-----10---10------|
G--11--------------|
D------------------|
A------------------|
E------------------|

then play intro #A&B, verse #A&B and chorus #A&B

# bridge X???
E-----------------------------------------|
B-----------------------------------------|
G—m-m-m-m-m-m-m-m-m-m-m-m-m-m-m-m-m-m-------------|
D—4-4-4-4-4-4-4-4-4-4-4-4-4-4-4-4-4-4-------------|
A—2-2-0-0-2-2-0-0-2-2-0-0-2-2-0-0-2-2-------------|
E-----------------------------------------|

then play intro #A&B 

Enviada por Daniel Grijó
(KBÇA da banda BLACK SHEEP)






Quer fazer uma correção nesta cifra?







    Comentários (0) Postar um Comentário

    Nenhum comentário encontrado. Seja o primeiro!