Cifra da música: Revólver - Dead Fish

Esse cifra de Dead Fish já foi acessado por 699 pessoas.

Comente

A música Revólver fez muito sucesso quando foi gravada por Dead Fish. Quer conhecer a letra dela? Veja a letra de Revólver e cante.

Veja também o vídeo da música tocada.


1) PARTE
Base principal da música é essa.
Repete 4 x 
e |-------------------------------------------------------------------------	|
b |------------------------------------------------------------------------ 	|
g |----------7-7-7------5-5-5------3-3-3--3-3-3------9/10/9------ 	|
d |----------7-7-7------5-5-5------3-3-3--3-3-3------9/10/9------ 	|
a | ---------5-5-5------3-3-3------1-1-0--1-1-0------7/ 8/7--------	|
e |-------------------------------------------------------------------------	|
2) PARTE
Refrão
e |------------------------------------------------------------------------ 	|
b |----------------------------------------------------------------------------	|
g |------------7-7-7----3-3-3--------------5-5-5-------------------------	|
d |------------7-7-7----3-3-3----5-5-5-----5-5-5-----------------------	|
a | -----------5-5-5----1-1-1----5-5-5-----3-3-3-----------------------	|
e |------------------------------3-3-3--------------------------------------	|
No Refrão varia as batidas
Repete 4 x e volta para primeira base
3) PARTE
e |------------------------------------------------------------------------- 	|
b |------------------------------------------------------------------------- 	|
g |----------7-7-7------3-3-3------10-10-10-----5-5-5---------------	|
d |----------7-7-7------3-3-3------10-10-10-----5-5-5----------------	|
a | ---------5-5-5------1-1-1-------8--8--8-----3-3-3-----------------	|
e |--------------------------------------------------------------------------	|
Também repete 4 x 




Quer fazer uma correção nesta cifra?







    Comentários (0) Postar um Comentário

    Nenhum comentário encontrado. Seja o primeiro!