Cifra da música: Noite - Dead Fish

Esse cifra de Dead Fish já foi acessado por 711 pessoas.

Comente

A música Noite fez muito sucesso quando foi gravada por Dead Fish. Quer conhecer a letra dela? Veja a letra de Noite e cante.

Veja também o vídeo da música tocada.


Versão 1
-======-

e|-6-6-5-5--|
B|-6-6-6-6--|
G|----------|
D|----------|
A|----------|
E|----------|

2ª Parte

e|--3-------3------|
B|----3-3-3---3----|
G|--------------3--|
D|-----------------|
A|-----------------|
E|-----------------|

(G|-A#-F-D|-C)
solidão, caminhar,
espero um dia te ver mudar.
essa vida são escolhas sem direção,
nada é linear.

(G|-A#-F-D|-C)
continuar, sobreviver,
pode ser muito cedo pra entender...
idéias em comum se tornam divisão,
caminhos opostos que se encontram ou não.

(A#-F-D|-F-C)
até que um dia amanhecer
e você vir a perceber.... 
até que um dia se levantar.... 
semelhança e diferença nos fizeram paralisar... 
e fingimos esquecer o que passou ... 

(G|-A#-F-D|-C)
não há futuro, não há passado, 
tudo que se foi ou que virá. 
só existe um sentimento teu por mim, 
estagnado odiar... 

(G|-A#-F-D|-C)
e não se ver, e não sentir 
que o fardo em sua costas te impede de existir. 
deixar escapar o que é melhor, 
a chama em seu olho apagou. 

(A#-F-D|-F-C)
até que um dia amanhecer 
e você finalmente perceber... 
até que um dia se levantar ... 
que nossas semelhanças nos façam caminhar e observar,
e que um dia você possa
me ver em ti (se ver em mim). 

(A|-F)
juntos estar em ação,
poder dizer um dia união,

E|-----------------|
B|-----------------|
G|-----9h10p9------|
D|--10-------------|
A|-----------------|
E|-----------------|
no presente existir,
porque a vida é curta e preciso agir

A# = X13XXX
F = 13XXXX
G = 35XXXX
D = X57XXX
C = X35XXX



 rlo Chioccola





Versão 2
-======-

Parece que nessa musica tem 3 guitarras
A=Murilo B=Philippe C=???

# intro1 #A 
E|-----------------------------------------|
B|-----------------------------------------|
G|-----------------------------------------|
D|-----------------------------------------|
A|-----------------------------------------|
E|-------quiet!!!--------------------------|

# intro1 #B
E|--6655------6655------6655------6655-----|
B|--6666------6666------6666------6666-----|
G|--5555------5555------5555------5555-----|
D|-----------------------------------------|
A|-----------------------------------------|
E|-----------------------------------------|

# intro2 #A *=tocar 12x
E|-------------------3-----3---------------|
B|-------*-------*-----333---3-------------|
G|---*--3----*--5--------------3-----------|
D|--5---3---3---5---/----4X---------------|
A|--5---1---3---3--------------------------|
E|--3-------1------------------------------|

# intro2 #B X2
E|--5-6655665566556655665566556655665------|
B|--6-6666666666666666666666666666666------|
G|--5-5555555555555555555555555555555------|
D|-----------------------------------------|
A|-----------------------------------------|
E|-----------------------------------------|

# pre-verse #A 


Quer fazer uma correção nesta cifra?







    Comentários (0) Postar um Comentário

    Nenhum comentário encontrado. Seja o primeiro!