Cifra da música: Por Paz - Dead Fish

Esse cifra de Dead Fish já foi acessado por 586 pessoas.

Comente

A música Por Paz fez muito sucesso quando foi gravada por Dead Fish. Quer conhecer a letra dela? Veja a letra de Por Paz e cante.

Veja também o vídeo da música tocada.


Introdução :

Guita 1   
e|------------------------|
B|------------------------|
G|--7-7-7-7-7-------------|
D|--7-7-7-7-7--8-8-8-8-8--|
A|--5-5-5-5-5--8-8-8-8-8--|
E|-------------6-6-6-6-6--|


Guita 2
e|-----------------|
B|-----------------|
G|--77-9-9/10--9---|
D|-----------------|
A|--55-7-7/-8-7---|
E|-----------------|


2ª parte :
'Sonhei com uma estrada...'

Guita 1   
e|------------------------|
B|------------------------|
G|--7-7-7-7-7-------------|
D|--7-7-7-7-7--8-8-8-8-8--|
A|--5-5-5-5-5--8-8-8-8-8--|
E|-------------6-6-6-6-6--|


Guita 2           			         AAA= alavanca         
e|-10-------10-------10-------10-------10----10-------------|
B|----10-10----10-10----10-10----10-10----10----10----10AAA-|
G|----------------------------------------------------------|
D|----------------------------------------------------------|
A|----------------------------------------------------------|
E|----------------------------------------------------------|
                3x                               /   



Refrão:
'Peço paz...'

Tocar as notas abaixo com um Palm-Muted muito rápido...

Guita 1   
e|------------------------|
B|------------------------|
G|--7-7-7-7-7-------------|
D|--7-7-7-7-7--8-8-8-8-8--|
A|--5-5-5-5-5--8-8-8-8-8--|
E|-------------6-6-6-6-6--|



Final:

Guita 1   
e|------------------------|
B|------------------------|
G|--7-7-7-7-7-------------|
D|--7-7-7-7-7--8-8-8-8-8--|
A|--5-5-5-5-5--8-8-8-8-8--|
E|-------------6-6-6-6-6--|


Guita 2
e|-----------------|
B|-----------------|
G|--77-9-9/10--9---|
D|-----------------|
A|--55-7-7/-8-7---|
E|-----------------|



Quer fazer uma correção nesta cifra?







    Comentários (0) Postar um Comentário

    Nenhum comentário encontrado. Seja o primeiro!