Cifra da música: Mulheres Negras - Dead Fish

Esse cifra de Dead Fish já foi acessado por 710 pessoas.

Comente

A música Mulheres Negras fez muito sucesso quando foi gravada por Dead Fish. Quer conhecer a letra dela? Veja a letra de Mulheres Negras e cante.

Veja também o vídeo da música tocada.


# intro #A X2 *=play 6x #=play 3x M=hard-muting
E-----------------------------------------|
B---*-------------------------------------|
G--6----#---#----MMM---MMM---9-7-6-7-6----|
D--6---4---7---2-222-2-222----------------|
A--4---4---7---2-222-2-222---7-5-4-5-4----|
E------2---5---0-000-0-000----------------|

# intro #B X2 *=play 6x #=play 3x
E-----------------------------------------|
B---*-------------------------------------|
G--6----#---#----MMM---MMM---MMM----------|
D--6---4---7---2-222-2-222-2-222-2-22-----|
A--4---4---7---2-222-2-222-2-222-2-22-----|
E------2---5---0-000-0-000-0-000-0-00-----|

# verse #A X1 #B X2
E-----------------------------------------|
B---*-------------------------------------|
G--6----#---#----MMM---MMM---MMM----------|
D--6---4---2---7-777-7-777-7-777-7-77-----|
A--4---4---2---7-777-7-777-7-777-7-77-----|
E------2---0---5-555-5-555-5-555-5-55-----|

# verse #A
E-----------------------------------------------------|
B---*---#---#----MMMMMM----MMMMMM----MMMMMM-----------|
G--6--11---9--14-141414-14-141414-14-141414-14-1414---|
D-----------------------------------------------------|
A--4---9---7--12-121212-12-121212-12-121212-12-1212---|
E-----------------------------------------------------|

# chorus #A
E----------------|----------END1----------|----------END2----------|
B----------------|------------------------|------------------------|
G----------------|---MMM---MMM---MMM------|---MMM------------999---|
D-------------55-|-7-777-7-777-7-777-7-77-|-7-777-7-77--222--999---|
A--55-555-555-55-|-7-777-7-777-7-777-7-77-|-7-777-7-77--222--777---|
E--22-222-222-33-|-5-555-5-555-5-555-5-55-|-5-555-5-55--000--------|

# chorus #B
E----------------|--------END1-------|--------END2-------|
B----------------|-------------------|-------------------|
G----------------|-------------------|-------------999---|
D-------------55-|-------------------|---------222-999---|
A--55-555-555-55-|-777-444-777-444---|-777-444-222-777---|
E--22-222-222-33-|-555-555-555-555---|-555-555-000-------|

then play intro #A&B, verse #A&B and chorus #A&B

# bridge #A *=play 9x
E------------------------/-----3X---------------------------------------|
B------------------------------------*-----------------------------------|
G----------------------------------10-----------9-10-9-10-9-10-9-10-9-10-|
D-----------------------------9999----------9999-------------------------|
A-------------------------777-----------777------------------------------|
E--5----4-7-5-----555555-------------------------------------------------|

# bridge #B /=single note
E-/----------5X---------------------------------|
B------------------------------------------------|
G-----------------/---/------------------------|
D--7---7---7--9---11---11---7---7---7--999111111-|
A---77--77--7--77---77---7---77--77--7-777-7-7-7-|
E------------------------------------------------|

# bridge2 #A X4 #=play 8x *=play 10x
E-------------|
B-------------|
G----------*--|
D---#-55--7---|
A--5--55--7---|
E--2--33--5---|

# bridge2 #B X???
E--------|
B--------|
G--------|
D--4h5---|
A--------|
E--------|
                                          D--7-|
then play chorus #A&B termine a musica em A--7-|
                                          E--5-|




Quer fazer uma correção nesta cifra?







    Comentários (0) Postar um Comentário

    Nenhum comentário encontrado. Seja o primeiro!