Cifra da música: Proprietários Do Terceiro Mundo - Dead Fish

Esse cifra de Dead Fish já foi acessado por 642 pessoas.

Comente

A música Proprietários Do Terceiro Mundo fez muito sucesso quando foi gravada por Dead Fish. Quer conhecer as demais músicas? Conheça as letras das músicas gravadas por Dead Fish e aproveite.

Veja também o vídeo da música tocada.


#A=Murilo #B=???


#intro #B
E-------------------------------------|
B-------------------------------------|
G---55-555-555-555-555-555-555-5555---|
D-------------------------------------|
A---33-333-333-333-333-333-333-3333---|
E-------------------------------------|

#intro #A /=slide-up *=play 30x palm-muted
E-------------------------------------|---X2----|
B-------------------------------------|----*----|
G-----------------/888-888-888-8888---|---5--5--|
D-------------------------------------|---5--5--|
A-----------------/666-666-666-6666---|---3--3--|
E-------------------------------------|---------|

#intro(cont.) #B X2
E----------------------------------------------|
B----------------------------------------------|
G---55-555-5/77-777-7/88-888-8/1010-10101010---|
D----------------------------------------------|
A---33-333-3/55-555-5/66-666-6/-8-8--8-8-8-8---|
E----------------------------------------------|

#verse #A&B X2
E---------------------------|
B-------------------88-88---|
G---mm-5------------88-88---|
D---55-5-mm-5-mm-6--88-88---|
A---33-3-55-5-66-6----------|
E--------33-3-44-4----------|

#verse(cont.) #A
E-----------------------------------------------------|
B-----------------------------------------------------|
G---5-55-----------------12-1212-10-1010--8-88-7-77---|
D---5-55-5-55-6-66-8-88-------------------------------|
A---3-33-5-55-6-66-8-88--10-1010--8--8-8--6-66-5-55---|
E--------3-33-4-44-6-66-------------------------------|

#verse(cont.) #B X2
E-------------------------|
B-------------------------|
G---5-55------------------|
D---5-55-5-55-6-66-8-88---|
A---3-33-5-55-6-66-8-88---|
E--------3-33-4-44-6-66---|

#chorus #A X4
E------------------------------------------|
B------------------------------------------|
G---55-555-555-555-555-555-555-8810-1010---|
D------------------------------------------|
A---33-333-333-333-333-333-333-66-8--8-8---|
E------------------------------------------|

#chorus #B *=play 8-9x =slide-down
E----------------------------------------------------------------|--- X4----|
B-----------------------------------------------------------*-*--|----*-*---|
G---55-555-555-555-------------8810-1010---55-555-555-555-108---|--108----|
D---55-555-555-555-666-666-666-------------55-555-555-555--------|----------|
A---33-333-333-333-333-333-333-66-8--8-8---33-333-333-333--86---|---86----|
E------------------444-444-444-----------------------------------|----------|

#bridge #A X2
E-----------------------|
B----*----*----*----*---|
G---5----7----8---10----|
D---5----7----8---10----|
A---3----5----6----8----|
E---3----5----6----8----|

#bridge #B m=palm-muted
E--------------------------------------------------------------------|
B---mmmm----mm----mmmm----mmmm----mm----mmmm----mmmm----mm----mmmm---| 
G---1010-10-10-10-1010-10-1010-10-10-10-1010-10-1010-10-10-10-1010---|  
D---1010-10-10-10-1010-10-1010-10-10-10-1010-10-1010-10-10-10-1010---|   
A--------------------------------------------------------------------|    
E--------------------------------------------------------------------|     
                                                                               play
#bridge(cont.) h=hammer-on                                                  /    2X
E-----------------------------------------|                                /
B-----------------------------------------|                               /
G---10h12-10-mm-mm-10h12-10-mm-10h12-10---|                              /
D------------12-10----------12------------|                             /
A-----------------------------------------|                            /
E-----------------------------------------|                           / 

play verse#A&B, chorus#A&B

#bridge2 #A *=play 15x palm-muted #=play 8x palm-muted
E--------------------------------------------------------------------%%---|
B-------------------------------------------------------------------#%%---|
G---5------------------------------*------------------------------/8-%%---|
D---------------------------------6----------------------------------%%---|
A---3-----------------------------6-------------------------------/6-%%---|
E---------------------------------4----------------------------------%%---|

#bridge2 #B *=play 15x palm-muted #=play 8x palm-muted
E--------------------------------------------------------------------%%---|
B--------------------------------------------------------------------%%---|
G----------5-------------5---------*--------5-------------5---------#%%---|
D---mm-3-m---mm-3-mm-3-m---m-3-m--6--mm-3-m---mm-3-mm-3-m---m-3-m--6-%%---|
A---33---3---33---33---3---3---3--6--33---3---33---33---3---3---3--6-%%---|
E---------------------------------4--------------------------------4-%%---|

#chorus #A X4
E------------------------------------------|
B------------------------------------------|
G---55-555-555-555-555-555-555-8810-1010---|
D------------------------------------------|
A---33-333-333-333-333-333-333-66-8--8-8---|
E------------------------------------------|

#chorus #B *=play 8-9x =slide-down
E----------------------------------------------------------------|
B-----------------------------------------------------------*-*--|
G---55-555-555-555-------------8810-1010---55-555-555-555-108---|
D---55-555-555-555-666-666-666-------------55-555-555-555--------|
A---33-333-333-333-333-333-333-66-8--8-8---33-333-333-333--86---|
E------------------444-444-444-----------------------------------|

#bridge3 #A *=até o fim da musica
E--------|
B----*---|
G---8----|
D--------|
A---6----|
E--------|

#bridge3 #B *=play 5x m=palm-muted
E--------------------------------------------------------------------------|
B-------------------------------------------*-8----------------------------|
G-------m--m-8--m-m-8--m-m-8--m-8--m-8--m-10----10-8--m-m-m--m-8--m-8--m---|
D--m--m-8-10---1010---1010---10---10---10------------1010-8-10---10---10---|
A--8-10--------------------------------------------------------------------|
E--------------------------------------------------------------------------|

#bridge3 #B (cont.) *=play 5x
E--------------------------------------------------------------------------|
B-------------------------------------------*------------------------------|
G-------m--m-8--m-m-8--m-m-8--m-8--m-8--m-10--8--m-8--m-m-m--m-8--m-8--m---|
D--m--m-8-10---1010---1010---10---10---10-------10---1010-8-10---10---10---|
A--8-10--------------------------------------------------------------------|
E--------------------------------------------------------------------------|

#bridge4 #B 
E-----------------------------------|--------------------------------------|
B--9---9---9---9--8---8---8---8-----|--9---9---9---9--8---8---11-9-8-9-8---|
G----8---8---8------8---8---8---8---|----8---8---8------8---8--------------|
D-----------------------------------|--------------------------------------|
A----------|--------------------------------------|
E-----------------------------------|--------------------------------------|



Quer fazer uma correção nesta cifra?







    Comentários (0) Postar um Comentário

    Nenhum comentário encontrado. Seja o primeiro!