Cifra da música: Sobre a Violência - Dead Fish

Esse cifra de Dead Fish já foi acessado por 537 pessoas.

Comente

A música Sobre a Violência fez muito sucesso quando foi gravada por Dead Fish. Quer conhecer a letra dela? Veja a letra de Sobre a Violência e cante.

Veja também o vídeo da música tocada.


E------------------------------------
B------------------------------------
G----10-10-----5--5----10-10----6--6-  Introdução e 
D----10-10-----5--5----10-10----6--6-   Verso
A-----8--8-----3--3-----8--8----4--4-   
E------------------------------------

Durante o verso faça o abafamento

E-------------------------------------------------
B-------------------------------------------------
G---------4/5---------4/5----------4/5---------3/5
D--6--6---4/5---5/6---4/5---6--6---4/5---5/6---3/5
A--6--6---2/3---5/6---2/3---6--6---2/3---5/6---2/3 
E--4--4---------3/4---------4--4---------3/4------

 
voce insistiu em nao perceber, virar as costas e esquecer, agora é tarde, nao tente se esconder! e sobre a violencia, que voce fingiu nao ver e agora explode, agora explode em sua cara, eu só vejo sangue a correr. não há mais nada, nao tente se emitir e nem aponte o dedo pra fingir nao ser voce. e sobre a violencia, que voce fingiu nao ver agora explode, agora atinge a sua vida e eu só vejo muros a crescer. e sobre a violencia, que voce fingiu nao ver e agra explode, agora atinge os seus filhos e eu só vejo lagrimas a correr.


 
   


Quer fazer uma correção nesta cifra?







    Comentários (0) Postar um Comentário

    Nenhum comentário encontrado. Seja o primeiro!