Cifra da música: Paz Verde - Dead Fish

Esse cifra de Dead Fish já foi acessado por 487 pessoas.

Comente

A música Paz Verde fez muito sucesso quando foi gravada por Dead Fish. Quer conhecer a letra dela? Veja a letra de Paz Verde e cante.

Veja também o vídeo da música tocada.


Introdução:

Guita 1:	*5x	m= palm muted(abafado)
e|----------------------------------|
B|------*--------------*------------|
G|---*--9--*--*-----*--9--mm--------|
D|---6--9--4--9-----6--9--44-4------|
A|---6--7--4--9-----6--7--44-4------|
E|---4-----2--7-----4-----22-2------|
		 	  4x /	


Guita 2         *3x
e|-----------------------------------------|
B|---*--*---*---*----*----*----------------|
G|---11-13--15--16---16--16--15--13--11--|
D|-----------------------------------------|
A|---9--11--13--14---14--14--13--11--9---|
E|-----------------------------------------|



Verso:
'Enquanto o índio e o povo são massacrados...'

Guita 1 e 2     *3x  m=palm muted(abafado)
e|----------------------------------|
B|------*--------------*------------|
G|---*--9--*--*-----*--9--mm--------|
D|---6--9--4--9-----6--9--44-4------|
A|---6--7--4--9-----6--7--44-4------|
E|---4-----2--7-----4-----22-2------|
		 	  4x /	



Pré-refrão:
'Malditos imundos que não sabem lucrar...'

Guita 1  &=let ring (deixar soar)
e|-------------------|
B|-------------------|
G|--&---&---&--mm----|
D|--2---6---2--44-4--|
A|--2---6---2--44-4--|
E|--0---4---0--22-2--|
     3x /     4x / 

Guita 2		% 8x
e|---------------------------------------------------------------------------|
B|---------------------------------------------------%--------%-----------%--|
G|---------------------------------------------------9--11-9--8--11-9--8--9--|
D|--2-----------6---------2-----------6--------------------------------------|
A|--2--2-4-2-1--6--2-2-1--2--2-4-2-1--6--4-4-2-2-1---7--9--7--6--9--7--6--7--|
E|--0-----------4---------0-----------4--------------------------------------|



Refrão:
'Paz verde, hipocrisia mundial...'

Guita 1		x= scratch
e|--------------------------------| 
B|--------------------------------|
G|---------------------------4-4--| 
D|---66--xxxx--66--xxxx-2-2--4-4--| 
A|---66--xxxx--66--xxxx-2-2--2-2--|
E|---44--xxxx--44--xxxx-0-0-------|
   \\   4X  //////////        


Guita 1 *3x
e|---------------|
B|-----*---------|
G|--*--9--*--*---|
D|--6--9--4--9---|
A|--6--7--4--9---|
E|--4-----2--7---|
       2x    /  

Guita 2 
e|-------------------------------------|
B|-------------------------------------|
G|---9-8-9-8-9-8/11-9-8-9-8-9-8-4-4-4--|
D|-------------------------------------|
A|---7-6-7-6-7-6/9--7-6-7-6-7-6-2-2-2--|
E|-------------------------------------|


Ponte:
'Talvez se não tivéssemos sido colonizados...'

Guita 1   &= let ring
e|-----------|
B|-----------|
G|---&---&---|
D|---6---2---|
A|---6---2---|
E|---4---0---|
      4x  /

Guita 2   $= vibrato  &= let ring  b= bend  @= pick slide(pick slide é vc pegar a palheta e deslizar nas cordas)  A= alavanquinha
e|----------------------------------&---------&--------------|
B|----------------------------------4--7--$---7--4--7--------|
G|----------------------------------------4------------4-----|
D|[email protected]|
A|------2-4-4/54-----2-4-4/[email protected]|
E|[email protected]|
   \\\  2x  ///////////

Continuação do Solo:					Full.
e|--2/4----2/4---7/9---2/4---2----2--4--7A7A7A7A7A7A--9b--7--6--4-|
B|-----------------------------4----------------------------------|
G|----------------------------------------------------------------|
D|----------------------------------------------------------------|
A|----------------------------------------------------------------|
E|----------------------------------------------------------------|


Aê pessoal... a tab tá pronta... nós somos de SANTOS e simplesmente amamos dead fish...
Bom... a estrutura da música tá toda aí... é só você se organizar e tocar tudo certinhu...
Aí pessoal, essa tab tá quase 100% certa, só a parte do solo que tipo é mais ou menos,
outra coisa... aqueles acordes tipo |-8-| são acordes oitavados... para executá-los é só abafar
                                    |---|  a corda do meio (que não foi utilizado)..
                                    |-6-|


 


Quer fazer uma correção nesta cifra?







    Comentários (0) Postar um Comentário

    Nenhum comentário encontrado. Seja o primeiro!