Cifra da música: Molotov - Dead Fish

Esse cifra de Dead Fish já foi acessado por 480 pessoas.

Comente

A música Molotov fez muito sucesso quando foi gravada por Dead Fish. Quer conhecer a letra dela? Veja a letra de Molotov e cante.

Veja também o vídeo da música tocada.


Versão 1
-======-

A música é, basicamente composta por 3 fases! 

Fase 1
e|------------------------------------------------------------------------|
B|------------------------------------------------------------------------|
G|-----------45555-----------55-------------45555-----------55------------|
D|----55555--45555--2222--33-55------55555--45555--2222-----55------------|
A|----55555--23333--2222--33-33------55555--23333--2222--33-33------------|
E|----33333---------0000--11---------33333---------0000--11---------------|
Começo da música

Fase 2
e|------------------------------------------------------------------------|
B|------------------------------------------------------------------------|
G|------------------------555/44------------------------555/44------------|
D|----55555--77777--2222--555/44----55555--77777--2222--555/44------------|
A|----55555--77777--2222--333/22----55555--77777--2222--333/22------------|
E|----33333--55555--0000------------33333--55555--0000--------------------|
Parte do Refrão: 'Molotov! Por todos que ainda iram!'

Fase 3
e|------------------------------------------------------------------------|
B|------------------------------------------------------------------------|
G|------------------------555------------------------555------------------|
D|----55555--77777--2222--555----55555--77777--2222--555------------------|
A|----55555--77777--2222--333----55555--77777--2222--333------------------|
E|----33333--55555--0000---------33333--55555--0000-----------------------|
Riff parecido com a 'Fase 2'
OBS: Na segunda execução da Fase 3, as cordas são abafadas.

por Andre Luiz ([email protected])






Versão 2
-======-


G B/C E F C
Muitos corpos caem
Caíram, cairão, camburão
Cassetete, porrada, porrete

Muitos nasceram
Viveram, morreram, lutaram
Cobraram, cobraram, correram
Cobraram pra poder comer

Curiosos, interessados
Lutadores, mártires, líderes
Comam, briguem, lutem
Levantem-se e caiam mas não 
se esqueçam de se levantar


G A E C/B
Molotov por todos que ainda irão... (2x)


G A E C (Intervalo) (2x)


G B/C E F C
Plantar, morar
Reformar, reagir, distribuir
Educar, dividir, compartilhar

Ensinar, progredir,
Olhar, ignorar, falar
Brigar, brigar, correr, 
correr, comer, correr,
Voltar a lutar

Infeliz do operário
Lutou, correu, comeu
Morou, lutou, lutou, gritou
Falou, fome passou


G A E C/B
Molotov por todos que ainda irão... (2x)


G A E C (Intervalo) (2x)


G A E C
Você que viu, indignou
Você que viu, e só viu
Ficou olhando, observando
Indignado, estático, apático

Enfrentou, combateu
Combateu, combateu, combateu
Gritou, gritou, gritou
Combateu, 
Dormiu na rua
Não acordou, morreu!!!!


G A E C/B
Molotov por todos que ai virão...(2x)


G A E C (Intervalo) (2x)


G A E C/B
Molotov por todos que ai virão...

Molotov...


Quer fazer uma correção nesta cifra?







    Comentários (0) Postar um Comentário

    Nenhum comentário encontrado. Seja o primeiro!