Cifra da música: Iceberg - Dead Fish

Esse cifra de Dead Fish já foi acessado por 503 pessoas.

Comente

A música Iceberg fez muito sucesso quando foi gravada por Dead Fish. Quer conhecer a letra dela? Veja a letra de Iceberg e cante.

Veja também o vídeo da música tocada.


A=Murilo  B=Philippe  

# intro #A  X4    *=play 4x    #=play 6x
E-----------------------------------------|
B-------------#---------------------------|
G---*---8---12----------------------------|
D--5--------------------------------------|
A--5----6---10----------------------------|
E--3--------------------------------------|

# intro #B  *=play 6x
E-----------------------------------------|
B--------*---------*---------*---------*--|
G---*---8-----*---8-----*---8-----*---8---|
D--5----8----5----8----5----8----5----8---|
A--5----6----5----6----5----6----5----6---|
E--3---------3---------3---------3--------|

# end-intro #A
E-----------------------------------------|
B-----------------------------------------|
G-----------------------------------------|
D--5--5-3-5--5-3-5--5-3-5-----------------|
A--5--5-3-5--5-3-5--5-3-5-----------------|
E--3--3-1/3--3-1/3--3-1/3-----------------|

# end-intro #B
E-----------------------------------------|
B-----------------------------------------|
G-----------------------------------------|
D--5------5------5--------5---------------|
A--5------5------5--------5---------------|
E--3------3------3----12/-3---------------|

# verse #A X2 *=play 6x #=play 3x **=play 3x with some palm-muting
E------6------------------6----------------------|
B------6--------#---#-----6----**------**--**----|
G---*--5----*--8--10---*--5---3----**-8---7------|
D--5----*--5---8--10--5----*--3---3--------------|
A--5-------5---6---8--5-------1---3---6---5------|
E--3-------3----------3-----------1--------------|

# verse #B X2 
E-------------------------------------------------|
B-------*-------#-----------*---**------**--------|
G---*--8----*--8----#---*--8---3----**-3----**----|
D--5---8---5---8---3---5---8---3---3---3---3------|
A--5---6---5---6---3---5---6---1---3---1---3------|
E--3-------3-------1---3-----------1-------1------|

# chorus #A X2  *=play 6x
E-----------------------------------------|
B-------*---*-----------*---*-------------|
G---*--7---8----*---*--7---8--------------|
D--5---7---8---8---5---7---8---8-8-8-8-7--|
A--5---5---6---8---5---5---6---8-8-8-8-7--|
E--3-----------6---3-----------6-6-6-6-5--|

# chorus #B X2 


Quer fazer uma correção nesta cifra?







    Comentários (0) Postar um Comentário

    Nenhum comentário encontrado. Seja o primeiro!