Cifra da música: Diariamente - Dead Fish

Esse cifra de Dead Fish já foi acessado por 567 pessoas.

Comente

A música Diariamente fez muito sucesso quando foi gravada por Dead Fish. Quer conhecer a letra dela? Veja a letra de Diariamente e cante.

Veja também o vídeo da música tocada.


1 º parte
Introdução

e|-------------------------------------------------------------------------------------------|
b|-------------------------------------------------------------------------------------------|
g|--------------4-4-4-----------------------------------4-4-4----------------------------|
d|------2-2----4-4-4--8-8-8---7-7-7--------2-2---4-4-4---8-8-8----7-7-7-------|
a|------2-2----2-2-2--8-8-8---7-7-7--------2-2---2-2-2---8-8-8----7-7-7-------|
E|-----------------------6-6-6---5-5-5--------------------------6-6-6---5-5-5-------|

Continuação da introdução 
e|-------------------------------------------------------------------------------------------|
b|-------------------------------------------------------------------------------------------|
g|--------------4-4-4----5-5-5---6-6-6------------------4-4-4---5-5-5--------------|
d|------2-2----4-4-4----5-5-5---6-6-6/7-7-----2-2---4-4-4---5-5-5--------------|
a|------2-2----2-2-2----3-3-3---4-4-4/7-7-----2-2---2-2-2---3-3-3--------------|
E|-------------------------------------------5-5-------------------------------------------|

2 º Parte Entra a voz
e|-------------------------------------------------------------------------------------------|
b|-------------------------------------------------------------------------------------------|
g|--------------4-4-4------------------------------4-4-4---------------------------------|
d|------2-2----4-4-4--7/8-7/8-7/8----- 2-2---4-4-4----7/8-7/8-7/8--------------|
a|------2-2----2-2-2 -7/8-7/8-7/8------2-2---2-2-2----7/8-7/8-7/8--------------|
E|-----------------------5/6-5/6-5/6------------------------5/6-5/6-5/6--------------|

3º parte
e|-------------------------------------------------------------------------------------------|
b|-------------------------------------------------------------------------------------------|
g|------------------------6-6-6-----------------------------------6-6-6------------------|
d|------2-2---8-8-8----6-6-6----7-7-7-----2-2---8-8-8----6-6-6---7-7-7--------|
a|------2-2---8-8-8----4-4-4----7-7-7-----2-2---8-8-8----4-4-4---7-7-7--------|
E|-------------6-6-6---------------5-5-5-------------6-6-6--------------5-5-5--------|



Refrão:

e|-------------------------------------------------------------------------------------------|
b|-------------------------------------------------------------------------------------------|
g|----------------7-7-7-----------5-5-5---------------7-7-7---------------5/3/--------|
d|-----5-5-5----7-7-7----2-2---5-5-5-----5-5-5--7-7-7-----8-8-8----5/3/8------|
a|-----5-5-5----5-5-5----2-2---3-3-3-----5-5-5---5-5-5----8-8-8----3/2/8------|
E|-----3-3-3----------------------------------3-3-3--------------6-6-6---------6--------

Esse refrão você repete 2x ( eu acho, he he ) 
Depois é só repeti a seqüência nessa ordem




Quer fazer uma correção nesta cifra?







    Comentários (0) Postar um Comentário

    Nenhum comentário encontrado. Seja o primeiro!