Cifra da música: Compra! - Dead Fish

Esse cifra de Dead Fish já foi acessado por 519 pessoas.

Comente

A música Compra! fez muito sucesso quando foi gravada por Dead Fish. Quer conhecer a letra dela? Veja a letra de Compra! e cante.

Veja também o vídeo da música tocada.


#intro #A&B  *=play 6x #=play 3-4x /=slide-down
E----------------------------------------------------------------|
B-------------------------------------*-------*-------*--#--#----|
G--11-----------------14--13---9/11-11-9/11-11-9/11-11-14-16-----|
D----------------------------------------------------------------|
A---9-----------------12--11---7/9--9--7/9--9--7/9--9--12-14-----|
E----------------------------------------------------------------|

#intro2 #A  *=play 6x
E------------------------------------------------------------------|
B--------*-------------------------*-------------------------------|
G----*--7----*--14-13111111----*--7---14-13111111-14-13111111------|
D---4---7---7-----------------4---7--------------------------------|
A---4---5---7---12-11-9-9-9---4---5---12-11-9-9-9-12-11-9-9-9------|
E---2-------5-----------------2------------------------------------|

#intro2 #B  *=play 6x
E-------------------------------------|
B--------*---------------*------------|
G----*--7----*---*---*--7----*---*----|
D---4---7---7---7---4---7---7---7-----|
A---4---5---7---7---4---5---7---7-----|
E---2-------5---5---2-------5---5-----|

#verse1 #A&B X2  *=play 6x
E-------------------|
B--------*----------|
G----*--7----*---*--|
D---4---7---7---7---|
A---4---5---7---7---|
E---2-------5---5---|

#verse2 #A *=play 5-6x  #=play 3-4x
E----------------------------------------------------|
B----*-----*-----*---#---#---*-----*-----*---#---#---|
G--11--9-11--9-11--14--13--11--9-11--9-11--14--16----|    toque enquanto a #B toca verse1
D----------------------------------------------------|
A---9--7--9--7--9--12--11---9--7--9--7--9--12--14----|
E----------------------------------------------------|

#end-verse #A&B  %%=pause
E-------------------------%%---|
B-------------------------%%---|
G---7-7--7-7-7--7-7-7--7-7%%---|
D---7-7--7-7-7--7-7-7--7-7%%---|
A---5-5--5-5-5--5-5-5--5-5%%---|
E-------------------------%%---|

#chorus1 #A
E-----------------------------|
B---------------------------------------------------|
G---------7-77---------------7-7--7-7-7--7-7--911---|
D---4-44--7-77--7-77-6-7-6---7-7--7-7-7--7-7--------|
A---4-44--5-55--7-77-6-7-6---5-5--5-5-5--5-5--7-9---|
E---2-22--------5-55-4-5-4--------------------------|

#chorus1 #B
E-----------------------------|
B---------------------------------------------------|
G---------7-77---------------7-7--7-7-7--7-7-7--7-7-|
D---4-44--7-77--7-77-6-7-6---7-7--7-7-7--7-7-7--7-7-|
A---4-44--5-55--7-77-6-7-6---5-5--5-5-5--5-5-5--5-5-|
E---2-22--------5-55-4-5-4--------------------------|

#chorus2 #A&B
E----------------------------------------|
B----------------------------------------|
G---------7-77---------------------7-77--|
D---4-44--7-77--7-77-6-7-6---4-44--7-77--|
A---4-44--5-55--7-77-6-7-6---4-44--5-55--|
E---2-22--------5-55-4-5-4---2-22--------|

#chorus3 #A&B  *=play 5-6x  #=play 5-6x with some palm-muting
E-----|
B----*--*--*--*---#--#--#--#--|
G--11--9--7--7--11--9--7--7---|
D--11--9--7--7--11--9--7--7---|
A---9--7--5--5---9--7--5--5---|
E-----------------------------|

#verse3 #A&B  *=play 6x
E-------------------------------------|
B--------*---------------*------------|
G----*--7----*---*---*--7----*---*----|
D---4---7---7---7---4---7---7---7-----|
A---4---5---7---7---4---5---7---7-----|
E---2-------5---5---2-------5---5-----|

#end-verse #A&B  %%=pause
E-------------------------%%---|
B-------------------------%%---|
G---7-7--7-7-7--7-7-7--7-7%%---|
D---7-7--7-7-7--7-7-7--7-7%%---|
A---5-5--5-5-5--5-5-5--5-5%%---|
E-------------------------%%---|

#chorus3 #A
E-----------------------------|
B---------------------------------------------------|
G---------7-77---------------7-7--7-7-7--7-7--911---|
D---4-44--7-77--7-77-6-7-6---7-7--7-7-7--7-7--------|
A---4-44--5-55--7-77-6-7-6---5-5--5-5-5--5-5--7-9---|
E---2-22--------5-55-4-5-4--------------------------|

#chorus3 #B
E-----------------------------|
B---------------------------------------------------|
G---------7-77---------------7-7--7-7-7--7-7-7--7-7-|
D---4-44--7-77--7-77-6-7-6---7-7--7-7-7--7-7-7--7-7-|
A---4-44--5-55--7-77-6-7-6---5-5--5-5-5--5-5-5--5-5-|
E---2-22--------5-55-4-5-4--------------------------|

#chorus4 #A&B
E----------------------------------------|
B----------------------------------------|
G---------7-77---------------------7-77--|
D---4-44--7-77--7-77-6-7-6---4-44--7-77--|
A---4-44--5-55--7-77-6-7-6---4-44--5-55--|
E---2-22--------5-55-4-5-4---2-22--------|

#bridge #A&B  *=play 6x #=play 3-4x /=slide-down
E----------------------------------------------------------------|
B-------------------------------------*-------*-------*--#--#----|
G--11-----------------14--13---9/11-11-9/11-11-9/11-11-14-16-----|
D----------------------------------------------------------------|
A---9-----------------12--11---7/9--9--7/9--9--7/9--9--12-14-----|
E----------------------------------------------------------------|

#bridge2 #A&B  *=play 5-6x  #=play 5-6x with some palm-muting
E-----|
B----*--*--*--*---#--#--#--#--|
G--11--9--7--7--11--9--7--7---|
D--11--9--7--7--11--9--7--7---|
A---9--7--5--5---9--7--5--5---|
E-----------------------------|

#end #A&B  *=play 3x #=play 3-4x palm-muted
E--------------------------------------------------------------------------------|
B----*--*--*--*--*--*--*--*--#--#--#--#--*--*--*--*--#--#--#--#--*--*------------|
G--11--9--7--7-11--9--7--7-11--9--7--7-11--9--7--7-11--9--7--7-11--9--7-7-7-7-7--|
D--11--9--7--7-11--9--7--7-11--9--7--7-11--9--7--7-11--9--7--7-11--9--7-7-7-7-7--|
A---9--7--5--5--9--7--5--5--9--7--5--5--9--7--5--5--9--7--5--5--9--7--5-5-5-5-5--|
E--------------------------------------------------------------------------------|


-----------------------------------

COMPRA! 

Hoje acordei com uma vontade de comprar
pois ontem na TV vi pessoas a pedir
porque eu não sei de nada
mas na verdade finjo nem saber
pois quando estou angustiado eu sei o que vou fazer
Comprar! comprar
Meus filhos não vão perceber 
propaganda e marqueting vão ser 
sua escolha não vai ensinar nada não
Nada não!
Não adiantaria pedir, nem apelar por distribuição aqui
Essas pessoas me olham e no fundo 
querem ser iguais a mim
Pra que ficar com pena se tenho tudo 
que eles querem ter
No fundo sei que estou errado
mas continuo propagando o poder de ostentar
Será que você sabe quanto custa
Sua ânsia de comprar?
Tão infeliz será com tudo que dinheiro 
pode demarcar
Seita consumista cega sem saber
Será que “bens” materiais irão te completar
Não vou distribuir não quero saber 
Distribuição? Não!
Distribuição? Não, não, não!

        ---------------

Dead Fish na veia... Punk HxCx.... 
FUBA NA VEIA....





Quer fazer uma correção nesta cifra?







    Comentários (0) Postar um Comentário

    Nenhum comentário encontrado. Seja o primeiro!