Cifra da música: Carta de Goldmund a Narcízio - Dead Fish

Esse cifra de Dead Fish já foi acessado por 404 pessoas.

Comente

A música Carta de Goldmund a Narcízio fez muito sucesso quando foi gravada por Dead Fish. Quer conhecer as demais músicas? Conheça as letras das músicas gravadas por Dead Fish e aproveite.


1º parte

Introdução

e|-----------------2------------------------------------------------|
b|--------------------3---------------------------------------------|
g|-----------7-----------2------------------------------------------|
d|-7----9----7------------------------------------------------------|
a|-7----9----5------------------------------------------------------|
E|-5----7-----------------------------------------------------------|


Base:
*=palm mute

e|---------------------------------------------------2--------------|
b|-----------------------------*-*---*---*-----------------3--------|
g|-*-*---*---*---*-*---*--*----7-7-7-7-7-7-7-------------------2----|
d|-7-7-7-7-7-7-7-9-9-9-9-9-9-9-7-7-7-7-7-7-7------------------------|
a|-7-7-7-7-7-7-7-9-9-9-9-9-9-9-5-5-5-5-5-5-5------------------------|
E|-5 5-5-5-5-5-5-7-7-7-7-7-7-7--------------------------------------|


Refrão

e|------------------------------------------------------------------|
b|------------------------------------------------------------------|
g|-5---7------------------------------------------------------------|
d|-5---7---7-7------------------------------------------------------|
a|-3---5---7-7------------------------------------------------------|
E|---------5-5------------------------------------------------------|

Quer fazer uma correção nesta cifra?







    Comentários (0) Postar um Comentário

    Nenhum comentário encontrado. Seja o primeiro!