Cifra da música: Anarquia corporation - Dead Fish

Esse cifra de Dead Fish já foi acessado por 494 pessoas.

Comente

A música Anarquia corporation fez muito sucesso quando foi gravada por Dead Fish. Quer conhecer a letra dela? Veja a letra de Anarquia corporation e cante.

Veja também o vídeo da música tocada.


Versão 1
-======-

Tom: D

D        A#         D               C   G
Anarquia corporation industria e comércio
D                           A#
Acho que já sei o que você quer,
D                    C            G
Mais uma regra pra seguir, Constituição anárquica
D                    A#      A
feita pra outra minoria dominar
D        A#     A
não há mudança só alternância de poder
D             A#            A
discriminado hoje descriminador amanhã
D       A#     A
mudança onde? aonde cidadão
D        A#         D                       C   G
Anarquia coorporation, não me diga o que falar
D        A#       A
Se for assim é melhor esquecer
D         A#           A
pensar direito no que venha a ser este ideal
D              A#           A
Fascismo e violência travestidos com o 'A'
D              A#           A
Nada mais de amizade, consciência e educação
F  D  F  D  F  D   A#
F           D           F         D
Não dá pra compreender, nem me entender
F          D          A#
Então usarei a mesma formula pra viver
F            D             F         D
Não quero olhar pro lado, não quero nem te ver
F            D         A#
Compartilhar pra que? Eu sou eu, sou eu
F            D           F         D
Milhares de teorias, milhões de ideologias
F            D         A#                        A#       C
todas parecem sempre cair no mesmo lugar

D        A#         D                               C   G
Anarquia corporation, por favor, não me diga o que usar
D                          A#
Fascismo e violência travestidos com o 'A'
D                             C          G
Será que o Freire vai entender ou sua proposta distorcer?
D                          A#
Onde está o pensamento de paz e União?
D                 C    G
E sobre a revolução?

D              A#                    D                          C    G
Anarquia corporation  Anarquia corporation  Não me diga o que falar
D              A#                    D                          C    G      D
Anarquia corporation  Anarquia corporation  Não me diga o que usar         não









Versão 2  (Tablatura)
-======-

Introdução Apenas 1 x
E|------------------------------------------------------------------------------|
B|------------------------------------------------------------------------------|
G|------------7-7-7---------------7-7-7-----5-5-5-5-----------------------------|
D|------------7-7-7-----8-8-8-----7-7-7-----5-5-5-5-----5-5-5-5-----------------|
A|------------5-5-5-----8-8-8-----5-5-5-----3-3-3-3-----5-5-5-5-----------------|
E|----------------------6-6-6---------------------------3-3-3-3-----------------|
 PARTE 2
E|--------------------------------------------------------------------------------|
B|--------------------------------------------------------------------------------|
G|------------7-7-7---------------------------------------------------------------|
D|------------7-7-7-----8-8-8----7-7-7--------------------------------------------|
A|------------5-5-5-----8-8-8----7-7-7--------------------------------------------|
E|----------------------6-6-6----5-5-5--------------------------------------------|
Repete 4 vezes
PARTE 3
E|--------------------------------------------------------------------------------|
B|--------------------------------------------------------------------------------|
G|-----------7-7-7----------------7-7-7-----------------7-7-7---------------5-5-5-|
D|--3-3-3----7-7-7-----3-3-3------7-7-7--------3-3-3----7-7-7-----8-8-8-----5-5-5-|
A|--3-3-3----5-5-5-----3-3-3------5-5-5--------3-3-3----5-5-5-----8-8-8-----3-3-3-|
E|--1-1-1-----------1-1-1-------------------1-1-1--------------6-6-6--------------|
Nessa Parte, quando chega no A# e C tocar abafadas.



Quer fazer uma correção nesta cifra?







    Comentários (0) Postar um Comentário

    Nenhum comentário encontrado. Seja o primeiro!