Cifra da música: Kick Out The Jams - Rage Against The Machine

Esse cifra de Rage Against The Machine já foi acessado por 459 pessoas.

Comente

A música Kick Out The Jams fez muito sucesso quando foi gravada por Rage Against The Machine. Quer conhecer a letra dela? Veja a letra de Kick Out The Jams e cante.

Veja também o vídeo da música tocada.


e-----------------------------------------
B-----------------------------------------
G-----------------------------------------
D---2---2---2---4---------4---4---4---4---
A---0---0---0---2---------2---2---2---2---
E-----------------------------------------



e---------------------------------------------------------------
B---------------------------------------------------------------
G---------------------------------------------------------------
D---------------2---2---2---2----------------2---2---2---2------
A---2---2-------0---0---0---0----2---2-------0---0---0---0------
E---0---0---3--------------------0---0---3----------------------


e---------------------------------------------------------------
B---------------------------------------------------------------
G---------------------------------------------------------------
D---------------2---2---2---2----------------2---2---2---2------
A---2---2-------0---0---0---0----2---2-------0---0---0---0------
E---0---0---3--------------------0---0---3----------------------



e-----------------------------------
B-----------------------------------
G---2---2---2---2---2---2---2---2---
D---2---2---2---2---2---2---2---2---
A---0---0---0---0---0---0---0---0---
E-----------------------------------



e----------------------------------------------------------------------------------------
B----------------------------------------------------------------------------------------
G----------------------------------------------------------------------------------------
D--2---2---2---4---4---4---4---4---4---4---4---4----7------9------7----------------------
A--0---0---0---2---2---2---2---2---2---2---2---2----5------7------5------2--2---2---2----
E----------------------------------------------------------0-------------0--0---0---0----


Solo Com Efeito Tremollo
e
B
G                    14  12
D                            14  12                   12h14
A   12^ 12^ 12^ 12^                  12^ 12^ 12^ 12^
E

e
B
G                    14  12
D                            14  12                  12h14
A   12^ 12^ 12^ 12^                  12^ 12^ 12^ 12^
E

e
B
G   12  11                  12  11
D           12          14          12      14^
A               12  14                  14
E

e
B
G   12  11              12  11      14^
D     12                  12      12  14
A               14  12
E



e-------
B-------
G-------
D---2---
A---2---   
E---0---










Quer fazer uma correção nesta cifra?







    Comentários (0) Postar um Comentário

    Nenhum comentário encontrado. Seja o primeiro!