Cifra da música: Bombtrack - Rage Against The Machine

Esse cifra de Rage Against The Machine já foi acessado por 675 pessoas.

Comente

A música Bombtrack fez muito sucesso quando foi gravada por Rage Against The Machine. Quer conhecer a letra dela? Veja a letra de Bombtrack e cante.

Veja também o vídeo da música tocada.


 
|-----------------------------------|-------------------------------------|
|-----------------------------------|-------------------------------------|
|---------------------------------0-|-------------------------------------|
|---2-0-----0----------2-0----0-2---|---2-0-----0----------2-0----0-------|
|-------2-----2-0----------2--------|-------2-----2-0----------2----2-----|
|-0---------------3--0--------------|-0---------------3--0------------3-2-|
                                                              Repeat 4 times
                                                              then:  E7#9
|---------------------|-----------------------|
|---------------------|-----------------------|
|---------------------|-----------------------|
|-----4-----------4-2-|-----4---------6--5--4-|
|---------------------|---------------4--3--2-| Repeat 3 times
|--0-2---0-2---0-2----|-0-2---0-2---0---------| then:

|---------------------|---------------------|---------------------------|
|---------------------|---------------------|---------------------------|
|---------------------|---------------------|---------------------------|
|-----4-----------4-2-|-----4---------6--6--|-6---------------6---------|
|---------------------|---------------4--4--|-4---------------4---------|
|-0-2---0-2---0-2-----|-0-2---0-2---0-------|-------------------2-12--0-|

|-------------------------------|----------------------------------|
|-------------------------------|----------------------------------| Repeat
|-------------------------------|----------------------------------| 3 times
|-------------------------------|----------------4-2---------------| ...
|-------------------------------|--------------------4-3-2---------|
|-2--2--0---2--2---2--2--5--6---|-2--2---0--2-0------------5-------| then:

|-------------------------------|----------------------------------|
|-------------------------------|----------------------------------|
|-------------------------------|----------------------------------|
|-------------------------------|----------------------------------|
|-------------------------------|----------------------------------|
|-2--2--0---2--2---2--2--5--6---|-2--2---0--2-2------------12-2----|

|-------------------------------|----------------------------------|
|-------------------------------|----------------------------------| Repeat
|-------------------------------|----------------------------------| 3 times
|-------------------------------|----------------4-2---------------| ...
|-------------------------------|--------------------4-3-2---------|
|-2--2--0---2--2---2--2--5--6---|-2--2---0--2-0------------5-------| then:

|-------------------------------|----------------------------------|
|-------------------------------|----------------------------------|
|-------------------------------|----------------------------------|
|-------------------------------|----------------------------------|
|-------------------------------|----------------------------------|
|-2--2--0---2--2---2--2--5--6---|-2--2---0--2-2--------------------|

|---------------------|-----------------------|
|---------------------|-----------------------|
|---------------------|-----------------------|
|-----4-----------4-2-|-----4---------6--5--4-|
|---------------------|---------------4--3--2-| Repeat 3 times
|-0-2---0-2---0-2-----|-0-2---0-2---0---------| then:

|---------------------|---------------4--4-|-4---------|------------------|
|---------------------|---------------4--4-|-4---------|------------------|
|---------------------|---------------4--4-|-4---------|------------------|
|-----4-----------4-2-|-----4---------3--3-|-3---------|-----4------6--5-4|
|---------------------|---------------4--4-|-4---------|------------4--3-2|
|-0-2---0-2---0-2-----|-0-2---0-2---0------|----2-17-2-|-0-2---0-2-0------|

|----------------------------------|-----------------12-12-12-12-12-12----|
|----------------------------------|-----------------12-12-12-12-12-12----|
|----------------------------------|-----------------9--9--9--9--9--9-----|
|----------------------------------|9-9-9-9--9-9-9-9------------------11-4|
|2-2-2-2--2-2-2-2--2-2-2-2--2-2-2-2|7-7-7-7--7-7-7-7------------------11-4|
|0-0-0-0--0-0-0-0--0-0-0-0--0-0-0-0|--------------------------------------|

|--------------------------------------|----------------------------------|
|--------------------------------------|----------------------------------|
|-----------------------4--------------|----------------------------------|
|-----------------------4--(4)(4)(4)(4)|----------------------------------|
|-----------------------4--(4)(4)(4)(4)|----------------------4-0--3-0-2-0|
|2-0-2-0--5-6-2-0--2-0--2--(2)(2)(2)(2)|2-0-2-0--5-6-2-0--2-0-------------|
                                                              Repeat 2 times
                                                              then:
|--------------------------------|--------------------------14-14-14------|
|--------------------------------|-----------------14-17-19----------19-17|
|(14)-14-(14)-14-(14)-14-(14)-14-|-(14)-14-(14)-16------------------------|
|(14)-14-(14)-14-(14)-14-(14)-14-|-(14)-14-(14)-16------------------------|
|--------------------------------|----------------------------------------|
|--------------------------------|----------------------------------------|

|----------------------------------0-|-14-17-16-17-16-17-16-16-|------16--|
|------------------------------------|-------------------------|----------|
|(14)-14-(14)-16-(14)-14-(14)-16-4---|-------------------------|----------|
|(14)-14-(14)-16-(14)-14-(14)-16-4---|-------------------------|----------|
|------------------------------------|-------------------------|----------|
|------------------------------------|-------------------------|----------|

|-16------------------17---5-|---------------------------|
|---------------------17---5-|---------------------------|
|----------------------------|---------------------------|
|----------------------------|-----4------------4--2-----|
|----------------------------|---------------------------|
|----------------------------|-0-2---0-2---0-2-----------|

|------------------------|-------------------------------------------|
|------------------------|----17-----17-----17-----17----17----17--5-|
|------------------------|-16-18--16-18--16-18--16-18(16)18-16-18--4-|
|------4---------6--5--4-|-------------------------------------------|
|----------------4--3--2-|-------------------------------------------|
|--0-2---0-2---0---------|-------------------------------------------|

|-------------------------------------------------------------------|
|-------------------------------------------------------------------|
|-2-2-14-18-14-4----2-14-18-18-4-2--2-2-14-18-14-4--2-14-18-18-4-2--|
|-------------------------------------------------------------------|
|-------------------------------------------------------------------|
|-------------------------------------------------------------------|

|-------------------------------------------------------------------|
|-----------------------------------------------------14-14-14------|
|-14-14-14-----14-14-14-16--14-14-14-16--14-14-14-16--14-14-14------|
|----------16-----------16-----------16-----------16-----------16---|
|-------------------------------------------------------------------|
|-------------------------------------------------------------------|

|-----------------------------------------|-------------------------|
|-----------------------------------------|-------------------------|
|-14-14-14-----14-14-14-------------------|-------------------------|
|----------16-------------------6---5---4-|-4--3--2-----------------|
|-------------------------------4---3---2-|-2--1--0-----------------|
|----------------------2--4--0------------|-------------------------|


-LYRICS-

-PART 1
It's just another bombtrack
And suckas be thinkin' that they can fade this
But I'm gonna drop it at a higher level
'Cause I'm inclined to stoop down
Hand out some beat-downs
Cold runna train on punk ho's that
Think they run the game
But I learned to burn that bridge and delete
Those who compete at a level that's obsolete
Instead I warm my hands on the flames of the flag
As I recall our downfall
And the business that burned us all
See through the news and views that twist reality
Enough
I call the bluff
Manifest destiny
Landlords and power whores
On my people they took turns
Dispute the suits I ignite
And then watch 'em burn
The thoughts of a militant mind
Hardline, hardline after hardline
Landlords and power whores
On my people they took turns
Dispute the suits I ignite
And then watch 'em burn

-Chorus:
Burn, burn, yes ya gonna burn
Burn, burn, yes ya gonna burn
Burn, burn, yes ya gonna burn
Burn, burn, yes ya gonna burn

-Part 2
Another funky radical bombtrack
Started as a sketch in my notebook
But now dope hooks make punks take another look
My thoughts ya hear and ya begin to fear
That ya card will get pulled if ya interfere
With the thoughts of a militant mind
Hardline, hardline after hardline
Landlords and power whores
On my people they took turns
Dispute the suits I ignite
And then watch 'em burn

Chorus
Solo
Chorus


Luis Robles - [email protected]
By Music Site - http://www.newview.com.br/tabs

*************************************************************************

Bombtrack - Rage Against the Machine (Version 2)


Intro| (w/octaver)
|----------------|----------------|-----------------|------------------|
|----------------|----------------|-----------------|------------------|
|----------------|--------------1-|-----------------|------------------|
|---3-1---1------|---3-1---1-3----|---3--1----1-----|---3--1----1------|
|-------3---3-1--|-------3--------|---------3---3-1-|---------3---3-1--|
|-1------------4-|-1--------------|-1--------------4|--1--------------4|


|----------------|----------------|-----------------|------------------|
|----------------|----------------|-----------------|------------------|
|----------------|------------1(3)|-----------------|------------------|
|---3-1---1------|---3-1--1-3-----|---3--1----1-----|---3--1----1------|
|-------3---3-1--|-------3--------|---------3---3-1-|---------3---3-1--|
|-1------------4-|-1--------------|-1--------------4|--1--------------4|
			     -tr---


Quer fazer uma correção nesta cifra?







    Comentários (0) Postar um Comentário

    Nenhum comentário encontrado. Seja o primeiro!