Cifra da música: Sleep Now In The Fire - Rage Against The Machine

Esse cifra de Rage Against The Machine já foi acessado por 888 pessoas.

Comente

A música Sleep Now In The Fire fez muito sucesso quando foi gravada por Rage Against The Machine. Quer conhecer a letra dela? Veja a letra de Sleep Now In The Fire e cante.

Veja também o vídeo da música tocada.


Tirado por Rômulo Teixeira - Banda DANUTS!

Standard E tuning (EADGBE)

riff 1 - intro 
------
played four times

E|------------------|
B|------------------|
G|----------5b-----.|
D|-7-7--5-7----7--7.|  played three times, then
A|-0-0--0-0----0--0-|
E|------------------|

E|-----------------------|
B|-----7b-7b-7-7-5-------|
G|-----7b-7b-7-7-5-------|
D|-7-5-------------7p5-7-|
A|-0-0-------------0-0-0-|
E|-----------------------|



riff 2 - verse   
------
played several times
w/ Digitech Whammy pedal set to harmonize a 4th down from normal pitch(you can make it sound
harmonized without the whammy if you played the notes in the paranthesis)

E|--------------------|
B|--------------------|
G|------------14------|
D|-----------(14)-----|  
A|--12-----------12---|
E|-(12)---------(12)--|
  P.M. on 12


riff one - chorus

riff two - second verse

riff one - chorus

riff two - third verse

riff one - played once

Solo 
------

While letting the guitar feedback, manipulate the sound using 
the toggle switch/whammy bar technique similar to the solo used in 
'Bullet in the Head' live. (Lead pickup set to 10, Rythym set to 0)


riff one - outro





Quer fazer uma correção nesta cifra?







    Comentários (0) Postar um Comentário

    Nenhum comentário encontrado. Seja o primeiro!