Cifra da música: Bulls On Parade - Rage Against The Machine

Esse cifra de Rage Against The Machine já foi acessado por 953 pessoas.

Comente

A música Bulls On Parade fez muito sucesso quando foi gravada por Rage Against The Machine. Quer conhecer a letra dela? Veja a letra de Bulls On Parade e cante.

Veja também o vídeo da música tocada.


 

Tune down 1/2 step
Riff 1
--------------------------------
--------------------------------
--------------------------------         
-4-------4---4--------4---4-----
--------------------------------
----2-----------2------------2--

Riff 2
------------------------------
------------------------------
------------------------------  
------------------------------  w/wah-wah pedal
-4--4--X-X--4--4--X-X-X-X-X-X- 
-2--2--X-X--2--2--X-X-X-X-X-X-

Riff 3
------------------------------------------------
------------------------------------------------
------------------------------------------------  
------------------------------------------------
---------0----2--0------------------------------
-0---2--------------0--2---------2---0----0---1-

Riff 4
------------------------------------------------------------------------
------------------------------------------------------------------------
------------------------------------------------------------------------
4--4--4-------4----4--4--4------4----4--4--4-------4----4--4--4--4-----4
-----------X------------------------------------X-----------------------
3--2--2----X--2----0--2--2------2----3--2--2----X--2----2--2--2--2--0--2

The solo is real fucked up. What you do is slide the pick and your 
fingers up and down the fourth string. Changes in pitch are the result 
of the hand slowing down and speeding.It's kind of like scratching a 
record.

That's it, just those four riffs. Pretty simple huh. Just listen to the 
song for the beat and the order of all the riffs.

-Lyrics-

Quit it now

The microphone explodes shattering the molds 
Either drop the hits like de la o or get the fuck off the comode
Wit tha sure shot
Sure to make the bodies drop drop and don't copy
Yo don't call this a co-op
Terror rains drenchin' quenchin' the thirst of the power dons
That five-sided fist a-gon
Tha rotten sore on the face of Mother Earth gets bigger
The trigger's cold empty ya purse

Rally round the family with a pocket full of shells X4

Weapons no food not homes not shoes not need just feed the war cannibal 
animal I
Walk tha corner to the rubble that used to be a library line up to the 
mind cemetary now
What we don't know keeps the contracts alive and movin 
They don't gotta burn the books they just remove 'em
While arms warehouses fill as quick as the cells 
Rally round the family 
Pocket full of shells

Rally round the family with a pocket full of shells X4

Bulls on parade (a bunch of times)

*******************************************************************

Bulls On Parade - Rage Against The Machine (Version 2)


INTRO
(dist. whammy pedal)
=20

||-----------------------------------------------------|
||-----------------------------------------------------|
||-----------------------------------------------------|
||---4---------4----4---------4----4---------4---------|
||-----------------------------------------------------|
||--------2--------------2--------------2---------2----|

(wah-wah)

      F#5
||----------------------------------------------------------------------
||----------------------------------------------------------------------
||----------------------------------------------------------------------
||----------------------------------------------------------------------
||----4----4----x--x----4----4----x--x--x--x--x--x----4----4----x--x----
||----2----2----x--x----2----2----x--x--x--x--x--x----2----2----x--x----


  ----------------------------------|
  ----------------------------------|
  ----------------------------------|
  ----------------------------------|
  ----4----4----x--x--x--x--x--x----|
  ----2----2----x--x--x--x--x--x----|


||-------------------------------------------------|------------------------=-|
||-------------------------------------------------|------------------------=-|
||-------------------------------------------------|------------------------=-|
||-------------------------------------------------|------------------------=-|
||-----------------0------------2---0--------------|------------------------=-|
||----0----2-----------------------------0----2----|----2----0-------0----1-=-|


||-----------------------------------------------------------------|
||-----------------------------------------------------------------|  =20
||--------(2)--(2)-------------------------------------------------|
||----4----4----4-------------4--------4---4---4----------4--------|
||------------------------x----------------------------------------|
||----3----2----2---------x---2--------0---2---2----------2--------|


|-------------------------------------------------------------------|
|-------------------------------------------------------------------|
|--------(2)--(2)---------------------------------------------------|
|----4----4----4--------------4--------4---4---4----------4---------|
|-------------------------x-----------------------------------------|
|----3----2----2----------x---2--------0---2---2----------2---------|
             =20
      B5
||----------------------------------------------------------------------
||----------------------------------------------------------------------
||----------------------------------------------------------------------
||----4----4----x--x----4----4----x--x--x--x--x--x----4----4----x--x----
||----2----2----x--x----2----2----x--x--x--x--x--x----2----2----x--x----
||----------------------------------------------------------------------


  --------------------------------------|
  --------------------------------------|
  --------------------------------------|
  ----4----4----x--x--x--x--x--x--------|=20
  ----2----2----x--x--x--x--x--x--------|
  --------------------------------------|


Solo
(slide fingers up&down strings 5-6)
either toggle switch or just move your hand to the beat

Outro
back to F#5 and then same as intro


Quer fazer uma correção nesta cifra?







    Comentários (0) Postar um Comentário

    Nenhum comentário encontrado. Seja o primeiro!