Cifra da música: Tire Me - Rage Against The Machine

Esse cifra de Rage Against The Machine já foi acessado por 402 pessoas.

Comente

A música Tire Me fez muito sucesso quando foi gravada por Rage Against The Machine. Quer conhecer a letra dela? Veja a letra de Tire Me e cante.

Veja também o vídeo da música tocada.


Afinação(D,A,D,G,B,E)

E|---------------------------------|
B|---------------------------------|
G|-----------------*-------*-------|
D|-----14------14--14--14--14--14--|
A|---------------------------------|
D|-0-------------------------------|
 


E|---------------------------------|
B|---------------------------------|
G|---------------------------------|
D|---------------------------3-----|
A|---8-5---8-5---8-5---8-5---3-----|
D|-0-----0-----0-----0-----0-3-----|

 

E|---------------------------------|
B|---------------------------------|
G|---------------------------------|
D|-0-------------------------------|
A|-0-------------------------------|
D|-0-------------------------------|


E|---------------------------------|
B|---------------------------------|
G|---------------------------------|
D|-0-0-0-0-0-0-0-0-0-0-0-0-0-0-0-0-|
A|-0-0-0-0-0-0-0-0-0-0-0-0-0-0-0-0-|
D|-0-0-0-0-0-0-0-0-0-0-0-0-0-0-0-0-|






Quer fazer uma correção nesta cifra?







    Comentários (0) Postar um Comentário

    Nenhum comentário encontrado. Seja o primeiro!