Cifra da música: Renegades Of Funk - Rage Against The Machine

Esse cifra de Rage Against The Machine já foi acessado por 765 pessoas.

Comente

A música Renegades Of Funk fez muito sucesso quando foi gravada por Rage Against The Machine. Quer conhecer a letra dela? Veja a letra de Renegades Of Funk e cante.

Veja também o vídeo da música tocada.


/=Slide
~=Vibrato
b^=Bend

Introdução

e-12-8-12-8-12-8-12-8-13-10-13-10-13-10-13-10||     2x


Riff principal
D---------0--------0--------0
A----3-5--0---3-5--0---3-5--0-----3/5--------||     
E-------------------------------0-1/3              
                                                     3x

Riff principal
D---------0--------0--------0-------       3x    
A----3-5--5---3-5--5---3-5--5-----3/5--------||    
E-------------------------------0-1/3  ||          
Obs: Colocando um D ao invés do A fica legal.

Refrão
e-----------------------------------------------||
b-----6--8--10--13--13-(10)---------------------||
g---7-----------------------7-------------------||

No final, antes do we get fresh

A--5/7--------------------||
E--3/5--------------------||

Isso é quando ele diz (we get fresh)

D--9999~8888~9999~8888~9999~8888~9999~8888~*etc*

                ou

D--9~8~9~8~9~8~9~8~*etc*

                ou

D--9b^8b^9b^8b9b^8b^9b^8b^*etc*


Tab by Foguinho ou [Guitarboy]

[email protected]

Obs: Eu coloquei varias versões para ninguém reclamar.




Quer fazer uma correção nesta cifra?







    Comentários (0) Postar um Comentário

    Nenhum comentário encontrado. Seja o primeiro!