Cifra da música: Testify - Rage Against The Machine

Esse cifra de Rage Against The Machine já foi acessado por 563 pessoas.

Comente

A música Testify fez muito sucesso quando foi gravada por Rage Against The Machine. Quer conhecer a letra dela? Veja a letra de Testify e cante.

Veja também o vídeo da música tocada.


Afine em (DADGBE)

Riff 1 (intro and verse):

E|---| c/ whammy pedal
B|---| 
G|---| 
D|---| 
A|---|
D|-0-|

Riff 2:

E|---------------------------------------------------------------------|
B|--6-------------------------------6----------------------------------|
G|--5-------------------------------5----------------------------------|
D|--3-------------------------------3-----------------------------/12b-|
A|--5-----------3----5-3------------5-----------7-10-------5-3----/12--|
D|-(0)-3-5--0------0-----0--5-3----(0)-3-5--0---7-10---0--------0------|



riff 3:

E|-------------|
B|-------------| 
G|-------------| 
D|-------------| 
A|-17--x-x-17--| 
D|-------------|

solo:

patch cord and wah-wah, just like in the live bullet in
the head solos.  not much to it.

riff 4: (who controls the past, etc...)

E|---------|
B|---------|
G|----5----|
D|-3--5--0-|
A|-3--3--0-|
D|-3-----0-|

E|----------------------------------------|
B|----------------------------------------|
G|----5---------8-7-8-7-8-7-8-7-8-7-8-7-8-|
D|-3--5---0-----8-7-8-7-8-7-8-7-8-7-8-7-8-|
A|-3--3---0-----6-5-6-5-6-5-6-5-6-5-6-5-6-|
D|-3------0-------------------------------|

riff 5:

E|------------------|
B|------------------|
G|-8-7--8-7--8-7--8-|
D|-8-7--8-7--8-7--8-|
A|-6-5--6-5--6-5--6-|
D|------------------|

Letra:

The movie ran through me
The glamour subdue me
The tabloid untie me
I'm empty please fill me
Mister anchor assure me
That Baghdad is burning
Your voice it is so soothing
That cunning mantra of killing
I need you my witness
To dress this up so bloodless
To numb me and purge me now
Of thoughts of blaming you
Yes the car is our wheelchair
My witness your coughing
Oily silence mocks the legless
Ones who travel now in coffins
On the corner
The jury's sleepless
We found your weakness
And it's right outside our door
Now testify

Now testify
It's right outside our door
Now testify
Yes testify
It's right outside our door

With precision you feed me
My witness I'm hungry
Your temple it calms me
So I can carry on
My slaving sweating the skin right off my bones
On a bed of fire I'm choking on the smoke that fills my home
The wrecking ball rushing
Witness your blushing
The pipeline is gushing
While here we lie in tombs
While on the corner
The jury's sleepless
We found your weakness
And it's right outside your door
Now testify
Yeah testify
It's right outside our door
Now testify
Now testify
It's right outside our door

Mass graves for the pump and the price is set
Mass graves for the pump and the price is set
Mass graves for the pump and the price is set
Mass graves for the pump and the price is set

Who controls the past now controls the future
Who controls the present now controls the past
Who controls the past now controls the future
Who controls the present now?

Now testify
Testify
It's right outside our door
Now testify
Testify
It's right outside our door
     

_______________________________________________________
Contribuição: Rômulo Teixeira([email protected])
Correção: Julio Scukeveris Macedo ([email protected])
Correção: Vinicius de A. Barboza ([email protected])


Quer fazer uma correção nesta cifra?







    Comentários (0) Postar um Comentário

    Nenhum comentário encontrado. Seja o primeiro!