Cifra da música: Year Of Tha Boomerang - Rage Against The Machine

Esse cifra de Rage Against The Machine já foi acessado por 423 pessoas.

Comente

A música Year Of Tha Boomerang fez muito sucesso quando foi gravada por Rage Against The Machine. Quer conhecer a letra dela? Veja a letra de Year Of Tha Boomerang e cante.

Veja também o vídeo da música tocada.


E|--------10----------------------|    
B|------------------------8-------|    
G|-(8)b7------7---9---7-------7---| 
D|--------------------------------|    
A|--------------------------------|    
E|--------------------------------|    

   
E|---------------------------------|--------------------------------|
B|---------------------------------|--------------------------------|
G|---------------------------------|--------------------------------|
D|---------------------------------|--------------------------------|
A|-2---x-x-5-7---0-----2---x---x-0-|2---x-x-5-7---0-----2-----------|
E|-2---x-x-------0-----2---x---x-0-|2---x-x-------0-----2----------|


E|----------------------------------------------------------|
B|----------------------------------------------------------|
G|----------------------------------------------------------|
D|-----------0------------3-----5-----3-----------|
A|------------------3-----5-----3--/5-----3---|
E|-0------------------3-----5-----3---------------|
 
E|---------------------|
B|---------------------|
G|---------------------|
D|---------------------|
A|-4-----4-----x---2---|
E|-4-----4-----x---2---|

                     3x
E|---------------------| |---------------------|
B|---------------------| |---------------------|
G|---------------------| |---------------------|
D|-------------2-------| |-------------2-------|
A|-4-----4---4-0---2---| |-4-4-4-2---4-0---2---|
E|-4-----4---4-----2---| |-4-4-4-2---4-----2---|
                       
E|---------------------|
B|-9----9------9---9---|
G|---------------------|
D|-6----6------6---6---|
A|---------------------|
E|---------------------|


E|-----------------------------------------------------------|
B|-----------------------------------------------------------|
G|-----------------------------------------------------------|
D|------------0---------0-----3-----5-----3-----------|
A|-------------------3-----5-----3--/5-----3---|
E|-------0-------------3-----5-----3---------------|
 










Quer fazer uma correção nesta cifra?







    Comentários (0) Postar um Comentário

    Nenhum comentário encontrado. Seja o primeiro!