Cifra da música: Zapata's Blood - Rage Against The Machine

Esse cifra de Rage Against The Machine já foi acessado por 398 pessoas.

Comente

A música Zapata's Blood fez muito sucesso quando foi gravada por Rage Against The Machine. Quer conhecer a letra dela? Veja a letra de Zapata's Blood e cante.

Veja também o vídeo da música tocada.


                           flanger                              flanger
E-----------------------x-22-x-22~~~~~----------------x-22-x-22~~~~~
B-----------------------------------------------------------------------x
G--x-x-x~~~~~----------------------------x-x-9~~~-------------x----x-----
D--x-x-x~~~~~----------------------------x-x-9~~~-----------x---------x--
A--x-x-x~~~~~----------------------------x-x-7~~~---------x--------------
E------------------------------------------------------------------------

     



E---------
B---------
G---------
D--10---
A---8----
E---------


                                         Corte O Delay
E-----x--15-18-18-18---|--16-16-15-15-15-16-15--
B-----x--15-18-18-18---|--15-15-15-16-16-16-16--
G-------------~~~~~~~~-|-----toque isso 3x
D------------------------------------|-----------------------------------
A------------------------------------|-----------------------------------
E------------------------------------|-----------------------------------






Quer fazer uma correção nesta cifra?







    Comentários (0) Postar um Comentário

    Nenhum comentário encontrado. Seja o primeiro!