Cifra da música: The Ghost Of Tom Joad - Rage Against The Machine

Esse cifra de Rage Against The Machine já foi acessado por 995 pessoas.

Comente

A música The Ghost Of Tom Joad fez muito sucesso quando foi gravada por Rage Against The Machine. Quer conhecer a letra dela? Veja a letra de The Ghost Of Tom Joad e cante.

Veja também o vídeo da música tocada.


afinacao:   6ª em Ré

e:---------------------
B:---------------------
G:---------------------
D:---------------------
A:---------------------
D:---------------------

refrao: (inicia a musica)

e:------------------------------------------
B:------------------------------------------
G:----(7)(5)(2)------------5----------------
D:--0--7--5--2--5--3--0----5--5--7---5---0--
A:--0--5--3--0--5--3--0----3--5--7---3---0--
D:--0-----------5--3--0-------5--7-------0--

* ( ) -> opcional. eu toco sem os parenteses, vc escolhe o jeito q achar melhor.


verso:

e:----------------------------
B:----------------------------    em uma parte da 
G:-------(5)------(5)---------    musika vc pode 
D:--0-----5--5--7--5----0-----    bater o Re na 
A:--0-----3--5--7--3----0-----    5 casa 5 corda
D:--0--------5--7-------0-----

* o rage toca o verso so no baixo, e a guitarra leva um riffizinho 
muito simples, q da pra mesclar com o riff do baixo.  fika o 
seguinte: toka o riff acima algumas vezes, depois:


e:----7>9----------7>9>7--------
B:------------------------------
G:--------(5)-------------------
D:--0------5--5--7--------0-----
A:--0------3--5--7--------0-----
D:--0---------5--7--------0-----

e isso ai...se kiser tocar o verso sem ser em riff, batendo so o 
baixo do acorde, fika legal tbm.





Quer fazer uma correção nesta cifra?







    Comentários (0) Postar um Comentário

    Nenhum comentário encontrado. Seja o primeiro!