Cifra da música: Voice Of The Voiceless - Rage Against The Machine

Esse cifra de Rage Against The Machine já foi acessado por 489 pessoas.

Comente

A música Voice Of The Voiceless fez muito sucesso quando foi gravada por Rage Against The Machine. Quer conhecer a letra dela? Veja a letra de Voice Of The Voiceless e cante.

Veja também o vídeo da música tocada.


Tirado por Rômulo Teixeira - banda DANUTS!

Intro: listen to cd for picking time
This may not be exact, but just slide around that area
for the notes
E-------------------------------|
B13/15/1817--------------------|
G-0----0------------------------|
D-------------------------------|
A-------------------------------|
D-------------------------------|

E--------------------------------|-------------------------------|
B--------------------------------|-------------------------------|
G--------------------------------|-------------------------------|
D----3----------------3-------5p3|-------------------------------|
A-3h5-5-3-5--3h5--3h5----5-3-5---|-5-3-5-3-0-3-------------------|
D--------------------------------|------------5-3-5-3-0-3-0------|




Quer fazer uma correção nesta cifra?







    Comentários (0) Postar um Comentário

    Nenhum comentário encontrado. Seja o primeiro!