Cifra da música: Street Fighting Man - Rage Against The Machine

Esse cifra de Rage Against The Machine já foi acessado por 391 pessoas.

Comente

A música Street Fighting Man fez muito sucesso quando foi gravada por Rage Against The Machine. Quer conhecer a letra dela? Veja a letra de Street Fighting Man e cante.

Veja também o vídeo da música tocada.


e--------------------------------
b--------------------------------
g--------------------------------
d--12~~~^----12~~~^----12~~~^----
a--------------------------------
d--------------------------------


e-------------------------------------------------------------------------
b-------------------------------------------------------------------------
g-------------------------------------------------------------------------
d--0-0-0-0-0-1-0-0-0-0-0---0-0-0-0-0-1-0-0-0-0-0---0-0-0-0-0-1-0-0-0-0-0-1
a------------------------3-----------------------3------------------------
d-------------------------------------------------------------------------

e------------------------------------------------------------
b------------------------------------------------------------
g------------------------------------------------------------
d-x-x-x-x-x-x-x-x--------------------------------------------
a-x-x-x-x-x-x-x-x--------------------------------------------
d-x-x-x-x-x-x-x-x--------------------------------------------

e---------------------------------------------
b---------------------------------------------
g---------------------------------------------
d-x-x-x-x-12-x-x-x-x-10-x-x-x-x-12-x-x-x-x-10-
a-x-x-x-x-12-x-x-x-x-10-x-x-x-x-12-x-x-x-x-10-
d-x-x-x-x-12-x-x-x-x-10-x-x-x-x-12-x-x-x-x-10-








Quer fazer uma correção nesta cifra?







    Comentários (0) Postar um Comentário

    Nenhum comentário encontrado. Seja o primeiro!