Cifra da música: Pistol Grip Pump - Rage Against The Machine

Esse cifra de Rage Against The Machine já foi acessado por 375 pessoas.

Comente

A música Pistol Grip Pump fez muito sucesso quando foi gravada por Rage Against The Machine. Quer conhecer a letra dela? Veja a letra de Pistol Grip Pump e cante.

Veja também o vídeo da música tocada.


E|-------------------------------------------------------|
B|-------------------------------------------------------|
G|-14-14-12-12-14-14-12-12-14-14-12-12-14-14-12-12-14-14-|

E|--------------------------------------------|
B|--------------------------------------------|
G|-14-14-12-12-14-----------------------------|

E|-----------------------------|
B|-----------------------------|
G|-14-14-12-12-14-14-12-12--12-| 3x

E|----------------------|
B|--------------14--14--|
G|-14-14-12-12-14--14---|

E|-14-14-12-12-14-14-12-12--12-|
B|-----------------------------|
G|-14-14-12-12-14-14-12-12--12-| 3x

E|-14-14-12-12-14--14---|
B|--------------14--14--|
G|-14-14-12-12-14--14---|




Quer fazer uma correção nesta cifra?







    Comentários (0) Postar um Comentário

    Nenhum comentário encontrado. Seja o primeiro!