Cifra da música: No Shelter - Rage Against The Machine

Esse cifra de Rage Against The Machine já foi acessado por 486 pessoas.

Comente

A música No Shelter fez muito sucesso quando foi gravada por Rage Against The Machine. Quer conhecer a letra dela? Veja a letra de No Shelter e cante.

Veja também o vídeo da música tocada.


Afinação(D,A,D,G,B,E)

E|------------------------------------|
B|------------------------------------| 
G|--5--7---10---5--7---x-x-x-x-x-x-x--|
D|--5--7---10---5--7---x-x-x-x-x-x-x--|
A|--3--5----8---3--5---x-x-x-x-x-x-x--|
D|---------------------x-x-x-x-x-x-x--|



E|--------------|
B|--------------|  
G|--------------|  
D|--------------|
A|--33-5-3h5p3--|
D|--------------|



E|--~16-~16-~16-~16-~16-~16-~16-^~~16--|
B|-------------------------------------|  
G|-------------------------------------|  
D|-------------------------------------|
A|-------------------------------------|
D|-------------------------------------|



E|-------------------------------|
B|-------------------------------|
G|-------------------------------|
D|-------------3-----------------|
A|--5--3----------5--3--5--------|
D|-------3-0---------------3--5--|


E|-----|
B|-----|
G|-----|
D|--0--|
A|--0--|
D|--0--|




Quer fazer uma correção nesta cifra?







    Comentários (0) Postar um Comentário

    Nenhum comentário encontrado. Seja o primeiro!