Cifra da música: New Millennium Homes - Rage Against The Machine

Esse cifra de Rage Against The Machine já foi acessado por 342 pessoas.

Comente

A música New Millennium Homes fez muito sucesso quando foi gravada por Rage Against The Machine. Quer conhecer a letra dela? Veja a letra de New Millennium Homes e cante.

Veja também o vídeo da música tocada.


Tirado por Rômulo Teixeira - banda DANUTS!

Intro
E---------------------------------|--------------------------------|
B---------------------------------|--------------------------------|
G---------------------------------|--------------------------------|
D---------------------------------|--------------------------------|
A---5---------5h7-----------------|------10/7-12/7--2-5h7--2-------|
E-0---5-0-0-0---------------------|----0------------0------0-------|

Verse:(I'm not sure try both of em) half wah
E---------------------------------|--------------------------------|
B---------------------------------|--------------------------------|
G---------------------------------|--------------------------------|
D---------------------------------|--------------------------------|
A-2-2-22-22-----------------------|--7-7-77-77---------------------|
E-0-0-00-00-----------------------|--0-0-00-00---------------------|

Chorus:(the I press it to CD bit)       

E----------------0-----------------|--------------------------------|
B----------------3-----------------|--------------------------------|
G----------------------------------|--------------------------------|
D-------999------------------------|--------------------------------|
A--222--777-222--------------------|--------------------------------|
E--000------000--------------------|--------------------------------|

Solo: something like bend a note, and hammer on other
frets on the string




Quer fazer uma correção nesta cifra?







    Comentários (0) Postar um Comentário

    Nenhum comentário encontrado. Seja o primeiro!