Cifra da música: Microphone Fiend - Rage Against The Machine

Esse cifra de Rage Against The Machine já foi acessado por 349 pessoas.

Comente

A música Microphone Fiend fez muito sucesso quando foi gravada por Rage Against The Machine. Quer conhecer a letra dela? Veja a letra de Microphone Fiend e cante.

Veja também o vídeo da música tocada.


E|---------------------------------| 
B|---------------------------------| 
G|---------------------------------| 
D|---------------------------------| 
A|----4--------4---x---------------| 
E|----2---0----2---x---0-----------| 


 
|-------------------------------|------------------------------| 
|-------------------------------|------------------------------| 
|-------------------------------|------------------------------| 
|-----11---11---11---11---------|-----9-----9-----9-----9------| 
|------9----9---9-----9---------|-----7-----7-----7-----7------| 
|-------------------------------|------------------------------| 
 
 
|------------------------------------------------------------| 
|------------------------------------------------------------| 
|------------------------------------------------------------| 
|------------------------------------------------------------| 
|----0------------0------------0-------0----0---0------------| 
|------------------------------------------------------------| 
 
 


  
|----------------------------------------------------------------------------| 
|----------------------------------------------------------------------------| 
|--------------------x-x-----------x-----------------------------------------| 
|--------------------x-x-----------x------------2---4------------------------| 
|--------------------x-x-----------x---0-------------------------------------| 
|------2-------------------0---2-------------------------0---2---0-----------| 


|----------------------------------------------------------------------------| 
|----------------------------------------------------------------------------| 
|--------------------x-x-----------x-----------------------------------------| 
|--------------------x-x-----------x------------2---4------------------------| 
|--------------------x-x-----------x---0-------------------------------------| 
|------2-------------------0---2-------------------------0---2---0-----------| 


 
|---------------------------------------------------------------------------------------------| 
|---------------------------------------------------------------------------------------------| 
|---------------------------------------------------------------------------------------------| 
|------------------------------------------------------------------2----4---------------------| 
|-----------x--------------------x--------------------x---------------------------------------| 
|-----0--2--x---5----------0--2--x---5----------0--2--x---5------------------0--2--0----------| 


 
|---------------------------------------------------------| 
|---------------------------------------------------------| 
|-------------x-x------x-----------------x-x-x-x----------| 
|-------------x-x------x-----------------x-x-x-x----------| 
|-------4-----x-x------x--------4--4-----x-x-x-x----------| 
|-------2-------------------0---2--2----------------------| 
 


 
|---------------------------------------------------------| 
|---------------------------------------------------------| 
|-------------x-x------x-----------------x-x-x-x----------| 
|-------------x-x------x-----------------x-x-x-x----------| 
|-------4-----x-x------x--------4--4-----x-x-x-x----------| 
|-------2-------------------0---2--2----------------------| 
 





Quer fazer uma correção nesta cifra?







    Comentários (0) Postar um Comentário

    Nenhum comentário encontrado. Seja o primeiro!