Cifra da música: Maggie's Farm - Rage Against The Machine

Esse cifra de Rage Against The Machine já foi acessado por 461 pessoas.

Comente

A música Maggie's Farm fez muito sucesso quando foi gravada por Rage Against The Machine. Quer conhecer a letra dela? Veja a letra de Maggie's Farm e cante.

Veja também o vídeo da música tocada.


Here are all the riffs to Maggie's Farm. You can figure
out in what order they go, etc. I'm pretty sure this is
right, but please mail any corrections to me. Enjoy!


Slide down neck after intro.

e-12--12--12--12--10--10--10--10---|
B---12--12--12--12--12--12--12--12-|
G----------------------------------|
D----------------------------------|
A----------------------------------|
E----------------------------------|

 
Parts 1 & 2 are the complete riff.
During verse only part 1 is played, whilst muted.
At certain times during verse, part 3 is played over the top.

e------------------------|-----------------------------|--------|
B------------------------|-----------------------------|--------|
G------7----------7----9-|------7----------------------|-9------|
D-9-9--7-9-9-9--9-7-9--9-|-9-9--7-9-9-9----------------|-9----9-|
A-9-9--5-9-9-9--9-5-9--7-|-9-9--5-9-9-9------5-----7-5-|-7----9-|
E-7-7----7-7-7--7---7----|-7-7----7-7-7--5-7---7-5-----|------7-|
_________________________/_____________________________/________/
		  Part 1			Part 2	 Part 3


x's are muted strums.

e---------------------|
B---------------------|
G---------------------|
D-9-9-xx-9-xx-9-xx-xx-|
A-9-9-xx-9-xx-9-xx-xx-|
E-7-7-xx-7-xx-7-xx-xx-|


e---------------------------------|
B---------------------------------|
G-----------------9-9-9-9-9-9-9-9-|
D-7-7-7-7-7-7-7-7-9-9-9-9-9-9-9-9-|
A-7-7-7-7-7-7-7-7-7-7-7-7-7-7-7-7-|
E-5-5-5-5-5-5-5-5-----------------|

The jam at the end is basically variations of the main riff 
intertwined with that Morello magic =)
Same goes for the solo.





Quer fazer uma correção nesta cifra?







    Comentários (0) Postar um Comentário

    Nenhum comentário encontrado. Seja o primeiro!