Cifra da música: In My Eyes - Rage Against The Machine

Esse cifra de Rage Against The Machine já foi acessado por 498 pessoas.

Comente

A música In My Eyes fez muito sucesso quando foi gravada por Rage Against The Machine. Quer conhecer a letra dela? Veja a letra de In My Eyes e cante.

Veja também o vídeo da música tocada.


    E|---------------------------    ------------
    B|---------------------------    ------------
    G|---------------------------    ------------
    D|--9--8--7-----7--8--9------    ------------
    A|--7--6--5--7--5--6--7------    --------7---
    E|-----------5---------------    --7--7------
    

    ----------------------------------------
    ----------------------------------------
    ----------------------------------------
    ---------------5--2--8--3--10-10--(10)--
    --55555555555--3--0--6--1--8--8---( 8)--
    --33333333333---------------------------

    

    ----------------------------------------
    ----------------------------------------
    ----------------------------------------
    --77777777------------------------------
    --55555555-7777--9999-------------------
    -----------5555--7777-------------------

    

    ----------------------------------------
    ----------------------------------------
    ----------------------------------------
    -----7-----7-----7----------------------
    --2--5--2--5--2--5--2--5----------------
    --0-----0-----0-----0--3----------------
      



Quer fazer uma correção nesta cifra?







    Comentários (0) Postar um Comentário

    Nenhum comentário encontrado. Seja o primeiro!