Cifra da música: How I Could Just Kill A Man - Rage Against The Machine

Esse cifra de Rage Against The Machine já foi acessado por 390 pessoas.

Comente

A música How I Could Just Kill A Man fez muito sucesso quando foi gravada por Rage Against The Machine. Quer conhecer a letra dela? Veja a letra de How I Could Just Kill A Man e cante.

Veja também o vídeo da música tocada.


Afinação do bordão em D
E|---------------------------------------------------------------|----------------------------------------------------------------| 
B|---------------------------------------------------------------|----------------------------------------------------------------| 
G|---------------------------------------------------------------|----------------------------------------------------------------| 
D|---------------------------------------------------------------|----------------------------------------------------------------| 
A|---------3---5----3---5------------3---5--5-----3/8-----       |---------------3---5----3---5--------3--5--5------3---5---------| 
D|---------------------------------------------------------------|----------------------------------------------------------------| 


 
|----------------------------------------------------------------------------------------------------------------| 
|----------------------------------------------------------------------------------------------------------------| 
|----------------------------------------------------------------------------------------------------------------| 
|--------0----3--------------------------------------------------------------------------------------------------| 
|--------------------------------------------------3-------------------------x-x---------------------------------| 
|--------------------0--------3----------5-------------0---0---0---0---0-----x-x----3--5--3----------------------| 



|------------------------------------------| 
|------------------------------------------| 
|------------------------------------------| 
|------------------------------------------| 
|------------------------------------------| 
|-------0----0----0----0----0--------------| 



|------0--2----------0--2--2----------0--2--2-------0--2----------------| 
|-----------------------------------------------------------------------| 
|-----------------------------------------------------------------------| 
|-----------------------------------------------------------------------| 
|-----------------------------------------------------------------------| 
|-----------------------------------------------------------------------| 








Quer fazer uma correção nesta cifra?







    Comentários (0) Postar um Comentário

    Nenhum comentário encontrado. Seja o primeiro!