Cifra da música: Fistful Of Steel - Rage Against The Machine

Esse cifra de Rage Against The Machine já foi acessado por 393 pessoas.

Comente

A música Fistful Of Steel fez muito sucesso quando foi gravada por Rage Against The Machine. Quer conhecer as demais músicas? Conheça as letras das músicas gravadas por Rage Against The Machine e aproveite.

Veja também o vídeo da música tocada.


D|----------------------------------------------------|
E|-xxxx--xx-xxx-xxxx---xxx-xxx------------------------| 


E|----------------------------------------------------|
B|----------------------------------------------------| 
G|----------------------------------------------------|
D|-2-4-4-X-X-2-4-4 -5-----2-4-4-X-X-2-4-4----5--------| 
A|-2-4-4-X-X-2-4-4--5-----2-4-4-X-X-2-4-4--4---5------|  
E|-0h2-2-X-X-0h2-2--------0h2-2-X-X-0h2-2-------------|


E|-------------------------|
B|-------------------------|  
G|-------------------------|
D|-2-4-4-X-X-2-4-4 ------7-| 
A|-2-4-4-X-X-2-4-4--4-5----|  
E|-0h2-2-X-X-0h2-2---------|






E|-14--(14)~~~~|  E|-10--10~~~~~|
B|-------------|  B|------------|
G|-------------|  G|------------|


G|0-------0-------0-------0-------0-------0-------0-------0-------|
D|--5-7-9----3-4-5---2-3-4---2-3-4---2-3-4---2-3-4---2-3-4---2-3-4|
A|-0-------0-------0-------0-------0-------0-------0-------0------|
E|----------------------------------------------------------------|
           

D|------------2-3-4---2-3-4------------2-3-4---2-3-4|
A|----------0-------0----------------0-------0------|
E|-0-2--~5~-----------------0-2--~5~----------------|


E|-17-17-17---18-18-18-------17-17-17-------------17-------17--------|
B|----------17----------17-------------17-19-19-19----17-17----17-19-|
G|-------------------------18----------------------------------------|



E|----------------------|19-19-19-17----19-19-19-17----21-19-19-17---|
B|----17----17-~17b19~|------------17-------------17-------------17|
G|-18----18-------------|--------------------------------------------|

                         

E|--------------------17b19-19-19-19-19|
B|--------------------------------------|
G|/14-/15-/16-/17-/17-------------------|



G|-3b4-|





Quer fazer uma correção nesta cifra?







    Comentários (0) Postar um Comentário

    Nenhum comentário encontrado. Seja o primeiro!