Cifra da música: Down On The Street - Rage Against The Machine

Esse cifra de Rage Against The Machine já foi acessado por 420 pessoas.

Comente

A música Down On The Street fez muito sucesso quando foi gravada por Rage Against The Machine. Quer conhecer a letra dela? Veja a letra de Down On The Street e cante.

Veja também o vídeo da música tocada.


 D------------------------------
 A--7--------------------------
 D--7--------------------------

    

 D-------------------------------
 A--xxxx-2-2-0-2xxx-0-7^(8)-5-2--
 D--xxxx-2-2-0-2xxx-0-7^(8)-5-2--

 D-------------------------------
 A--xxxx-2-2-0-2xxx-0-5-7-5-2----
 D--xxxx-2-2-0-2xxx-0-5-7-5-2----

   

 G--------------------		 G-------------------------          G-----
 D--9--9-7-7-12-12-7--  toqye 3x,D--14--14-12-12-14-14-12-- acaba    D--9--
 A--7--7-5-5-10-10-5-- então --> A--12--12-10-10-12-12-10-- com -->  A--7--
 D--------------------		 D-------------------------          D-----


G-----------------
D--7^(8)--7p5-----
A--------------7--
D-----------------





Quer fazer uma correção nesta cifra?







    Comentários (0) Postar um Comentário

    Nenhum comentário encontrado. Seja o primeiro!