Cifra da música: Undecided - Silverchair

Esse cifra de Silverchair já foi acessado por 469 pessoas.

Comente

A música Undecided fez muito sucesso quando foi gravada por Silverchair. Quer conhecer a letra dela? Veja a letra de Undecided e cante.

Veja também o vídeo da música tocada.


 
**Key**
P.M.-palm mute
h-hammer
/-slide
p-pull off
x-strum muted strings

**Tuning** Dropped D (DADGBE)

--Notes--
For the most part i will only show chord progressions rather
than writing out every chord repeatedly.

Fig.1 Verse
E|-----------------|
B|-----------------|
G|-----------------|
D|--2--2h3-2--2p0--|
A|--2--2h3-2--2p0--|
D|--2--2h3-2--2p0--|

Fig2. Verse (end of each verse)
E|---------------------------------------------------------|
B|---------------------------------------------------------|
G|---------------------------------------------------------|
D|-2-x--x-x--x-x-x-2h3-2-x--x-x--x-x-x-2p0-2-x--x-x--x-x-x-|
A|-2-x--x-x--x-x-x-2h3-2-x--x-x--x-x-x-2p0-2-x--x-x--x-x-x-|
D|-2-x--x-x--x-x-x-2h3-2-x--x-x--x-x-x-2p0-2-x--x-x--x-x-x-|

Fig. 3 after each verse
E|-----------------------|
B|-8--/-10--/-11---------|
G|-7--/--9--/-10---------|
D|-5--/--7--/--8---------|
A|-5--/--7--/--8---------|
D|-5--/--7--/--8---------|
play each chord a bunch of times before sliding 

Fig. 4 Chorus
E|--------------------|
B|--------------------|
G|--------------------|
D|-2/5--3/8--2/5--0-7-|
A|-2/5--3/8--2/5--0-7-|
D|-2/5--3/8--2/5--0-7-|

Fig. 5 shows up twice in the song
    PM------|
E|---------------|
B|---------------|
G|---------------|
D|-2-0-0-0-0-0-2-|
A|-2-0-0-0-0-0-2-|
D|-2-0-0-0-0-0-2-|

Fig. 6 Bridge
E|---------------------------------|
B|---------------------------------|
G|---------------------------------|
D|--4-----------------/9--0--2--4--|
A|--4(play a lot then)/9--0--2--4--|
D|--4-----------------/9--0--2--4--|
'Her mother doesn't even know her name...'

Fig. 7 outro
PM--------------|                               
|-----------------------|                   |------------|
|-----------------------|                   |------------|
|-----------------------|                   |------------|
|-2-0-2-0-2-3-2-0-------| play three times  |-----2------|
|-2-0-2-0-2-3-2-0-------| then end on       |-----2------|
|-2-0-2-0-2-3-2-0-------|                   |-----2------|


Quer fazer uma correção nesta cifra?







    Comentários (0) Postar um Comentário

    Nenhum comentário encontrado. Seja o primeiro!