Cifra da música: World Upon Your Shoulders - Silverchair

Esse cifra de Silverchair já foi acessado por 763 pessoas.

Comente

A música World Upon Your Shoulders fez muito sucesso quando foi gravada por Silverchair. Quer conhecer a letra dela? Veja a letra de World Upon Your Shoulders e cante.


Introdução


e|-----7-------3-3/53-3-3---2h3--3---------7-7h8-10---3/53-3-3---3-2-0----------------|
B|-3/8---8-8---3-3/53-3-3-----------3--3/8--------8---3/53-3-3---------3/5------------|
G|-0---------0-0-0-----0-0--0----0-0----0----0---0----0-0-----0-0--0----------2p0--------|
D|----------------------------------------------------0---------------------------0-1----|
A|---------------------------------------------------------------------------------------|
E|-------------------------------------------------------------------------------------0-|

Verso 

   Em    Bm    D     C       Em    Bm    D     Em     Bm    C
E|-7-----2-----------0-------7-----2-----------------------0-| x2
B|-8-----3-----7-----5-------8-----3-----7-----8-----3-----5-|
G|-x-----x-----x-----0-------x-----x-----x-----x-----x-----0-|
D|-9-----4-----7-----5-------9-----4-----7-----9-----4-----5-|
A|-7-----2-----5-----3-------7-----2-----5-----7-----2-----3-|
E|-----------------------------------------------------------|

All the bridges in the world won't save you
If there is no other side to cross to


Pré-Refrão
    Bm    Am7
E|--2-----------|x2
B|--3-----1-----|
G|--X-----0-----|
D|--4-----2-----|
A|--2-----0-----|
E|--------------|

Bm                 Am7           E|----------|
  When you're not feelin' again  B|-1--------| 
Bm                   Am7         G|-0-3------| toque Am7 e acrecente 3,
  The world's not too much       D|-2--------| escute algumas vezes para entender
                                 A|-0--------|
                                 E|----------|
Refrão

  D6/F#  Am7   D6/F#  C     G
E|--2-----0-----2-----3-----3-----|
B|--0-----1-----0-----1-----3-----|
G|--2-----0-----2-----0-----0-----|
D|--0-----2-----0-----2-----0-----|
A|--0-----0-----0-----3-----2-----|
E|--2-----------2-----------3-----|

          D6/F#            Am7
Take the world upon your shoulders
          D6/F#            C  G
Take the world upon your shoulders
    D6/F#                    Am7
And burn, burn, burn, burn, burn    
         D6/F#             C               
Take the world upon your shoulders

Pré-Verso
E|--0-2-0-----------------|
B|--------3/5-------------|
G|------------2p0---------|
D|-----------------0-1----|
A|------------------------|
E|---------------------0--|


Verso

   Em    Bm    D     C       Em    Bm    D     C     Bm    C
E|-7-----2-----------0-------7-----2-----------------------0-| x2
B|-8-----3-----7-----5-------8-----3-----7-----8-----3-----5-|
G|-x-----x-----x-----0-------x-----x-----x-----x-----x-----0-|
D|-9-----4-----7-----5-------9-----4-----7-----9-----4-----5-|
A|-7-----2-----5-----3-------7-----2-----5-----7-----2-----3-|
E|-----------------------------------------------------------|

Half full glasses
Lost in empty houses

Pre-Refrão

   D7    Am7                 D7    Am7
E|--2-----3------5-----3-----2-----3-----|
B|--1-----1--5/7---7/5-------1-----1-----|
G|--2-----0------------------2-----0-----|
D|--0-----2------------------0-----2-----|
A|--------0------------------------0-----|
E|---------------------------------------|
D7                  Am7          (toca o solo ali do meio)
   When you're not feeling again
D7                    Am7 
  The world's not too much

Refrão

  D6/F#  Am7   D6/F#  C     G
E|--2-----0-----2-----3-----3-----|
B|--0-----1-----0-----1-----3-----|
G|--2-----0-----2-----0-----0-----|
D|--0-----2-----0-----2-----0-----|
A|--0-----0-----0-----3-----2-----|
E|--2-----------2-----------3-----|

          D6/F#            Am7
Take the world upon your shoulders
          D6/F#            C  G
Take the world upon your shoulders
    D6/F#                    Am7
And burn, burn, burn, burn, burn    
         D6/F#             C               
Take the world upon your shoulders


Interlude
E|---------6---------------6-------|---------3---------------3-------|
B|-----4-----4---4-----4-----4---4-|-----1-----1---1-----1-----1---1-|
G|-------0-----0---------0-----0---|-------0-----0---------0-----0---|
D|---5---------------5-------------|---2---------------2-------------|
A|-6---------------6---------------|-3---------------3---------------|
E|---------------------------------|---------------------------------|

E|---------6---------------6-------|---------------------------------|
B|-----4-----4---4-----4-----4---4-|-----1---1-1---1-----1---1-1---1-|
G|-------0-----0---------0-----0---|-------0-----0---------0-----0---|
D|---5---------------5-------------|---2---------------2-------------|
A|-6---------------6---------------|-3---------------3---------------|
E|---------------------------------|---------------------------------|
Violent, big and violent

E|---------6---------------6-------|------------------------0-------|
B|-----4-----4---4-----4-----4---4-|-----1---1-1---1----1-----1---1-|
G|-------0-----0---------0-----0---|-------0-----0--------2-----2---|
D|---5---------------5-------------|---2--------------2-------------|
A|-6---------------6---------------|-3---------------0--------------|
E|---------------------------------|--------------------------------|
Like a thing that´s big
Big and violent

Solo
E|-----------------------------3-------5-| 1x
B|-----5-7-7/87-7--3/5------------------|
G|----------------------5--4/5----4/5----|
D|--2-------------------5----------------|
A|--2-------------------3----------------|
E|--0------------------------------------|
A world that's big and violent

E|-------------------------------------------| 3x
B|------5-7-8-7--0-3h5-3--0h3-------3-----5--|
G|--9-------------------------5--------------|
D|--9-------------------------5--4/5---4/5---|
A|--7-------------------------3--------------|
E|--0----------------------------------------|
                                                                  E5  Bm  Em  C#m E5  C
E|----------------------------------------------------------------0---7---0---0---0---0---|
B|----------------------------------------------------------------0---7---8---5---0---5---|
G|----------------------------------------------------------------9---7---9---6---9---5---|
D|---------9--7---------9--7------0000-2-----0---0-2------0-------9---9---9---6---9---5---|
A|----2/7----------2/7-------7~~---------4-2---2-----4--2---2-----7---9---7---4---7---3---|
E|--0------------0------------------------------------------------0---7---0-------0-------|
obs.: Essa parte nao tah 100% certa mas ficou parecida

Pré-Refrão
    D7    Am7
E|--2-----3-----|
B|--1-----1-----|
G|--2-----0-----|
D|--0-----2-----|
A|--------0-----|
E|--------------|

D7                 Am7
  When you're not feelin' again
D7                   Am7
  The world's not too muchch

Refrão

  D6/F#  Am7   D6/F#  C     G
E|--2-----0-----2-----3-----3-----|
B|--0-----1-----0-----1-----3-----|
G|--2-----0-----2-----0-----0-----|
D|--0-----2-----0-----2-----0-----|
A|--0-----0-----0-----3-----2-----|
E|--2-----------2-----------3-----|

          D6/F#            Am7
Take the world upon your shoulders
          D6/F#            C  G
Take the world upon your shoulders
    D6/F#                    Am7
And burn, burn, burn, burn, burn    
         D6/F#             C               
Take the world upon your shoulders
          D6/F#            Am7
Take the world upon your shoulders
          D6/F#            C  G
Take the world upon your shoulders


_________________________________________________________

Quer fazer uma correção nesta cifra?







    Comentários (0) Postar um Comentário

    Nenhum comentário encontrado. Seja o primeiro!