Cifra da música: Miss You Love - Silverchair

Esse cifra de Silverchair já foi acessado por 1026 pessoas.

5.00 / 5 - 4
Comente

A música Miss You Love fez muito sucesso quando foi gravada por Silverchair. Quer conhecer a letra dela? Veja a letra de Miss You Love e cante.

Veja também o vídeo da música tocada.


Versão 1
-======-

TUNING - Standard (EADGBE)

KEY
h - hammer on
p - pull off
x - scrape muted string
/ - slide up
 - slide down

										2x
|---------------------------------------------------------------------------------|
|-----3---------3---------3---------3---------3---------3---------3---------3-----|
|-------0---------0---------0---------0-----2---2-----2---2-----2---2-----2---2---|
|---2-----2---2-----0---0-----0---0-----0-0-------0-0-------0-0-------0-0-------0-|
|-3---------3---------------------------------------------------------------------|
|---------------------3---------3-------------------------------------------------|

Millionaire say
Got a big shot deal
And thrown it all away but
But I'm not too sure
How I'm supposed to feel
Or what I'm supposed to say but...
        
                    2x
|---------------------||--------------------------------------------|
|-----3---------3-----||------1----------1---------1----------1-----|
|-------0---------0---||--------2----------2---------2----------2---|
|---2-----0---0-----0-||----2-----2----2-----2---2-----2----2-----2-|
|-3-------------------||-0----------0----------0---------0----------|
|-----------3---------||--------------------------------------------|

|--------------------------------------------||--------------------------|
|-----0----------0----------0----------0-----||------1----------3--------|
|-------0----------0----------0----------0---||--------0----------0------|
|---2-----2----2-----2----2-----2----2-----2-||----2-----2----0-----0----|
|--------------------------------------------||-3----------2-----------0-|
|-0---------0----------0----------0----------||--------------------------|

I'm not, not sure,
Not too sure how it feels
To handle every day

And I miss you love

                                                                                2x
|---------------------------------------------------------------------------------|
|-----3---------3---------3---------3---------3---------3---------3---------3-----|
|-------0---------0---------0---------0-----2---2-----2---2-----2---2-----2---2---|
|---2-----2---2-----0---0-----0---0-----0-0-------0-0-------0-0-------0-0-------0-|
|-3---------3---------------------------------------------------------------------|
|---------------------3---------3-------------------------------------------------|

Make room for the prey
'Cause I'm coming in
With what I wanna say but
It's gonna hurt
And I love the pain
A breeding ground for hate but... 

                    2x
|---------------------||--------------------------------------------|
|-----3---------3-----||------1----------1---------1----------1-----|
|-------0---------0---||--------2----------2---------2----------2---|
|---2-----0---0-----0-||----2-----2----2-----2---2-----2----2-----2-|
|-3-------------------||-0----------0----------0---------0----------|
|-----------3---------||--------------------------------------------|

I'm not, not sure,
Not too sure how it feels

|--------------------------------------------||--------------------------------------------|
|-----0----------0----------0----------0-----||------1----------1---------1----------1-----|
|-------0----------0----------0----------0---||--------2----------2---------2----------2---|
|---2-----2----2-----2----2-----2----2-----2-||----2-----2----2-----2---2-----2----2-----2-|
|--------------------------------------------||-0----------0----------0---------0----------|
|-0---------0----------0----------0----------||--------------------------------------------|

To handle every day
Like the one that just past

|-----2---------2---------1---------0-----|
|-------3---------3---------3---------3---|
|---2-----2---2-----2---2-----2---0-----0-|
|-0---------0---------0-------------------|
|-----------------------------------------|
|-------------------------------3---------|

In the crowds of all the people

             2x                   2x
|----2----0----||----0----0----0----|
|----2----0----||----3----0----0----|
|----2----1----||----2----2----1----|
|----4----2----||----0----2----2----|
|----4----2----||---------0----2----|
|----2----0----||--------------0----|
      (strumming not notated)

Remember today
I've no respect for you
And I miss you love
And I miss you love 

       (TWO GUITARS ARRANGED FOR ONE)
|----------------------------------------------------------------------------------------|
|----------------------------------------------------------------------------------------|
|----------------------------------------------------------------------------------------|
|-2--2-2-3-3h5-5-5-5-3------------------------4--4-4-5-5h7-7-7-7-5--4--4-4-5-5h7-7-7-7-5-|
|-3--3-3-3-3---3-3-3-3--2--2-2-3-3h5-5-5-5-3--5--5-5-5-5---5-5-5-5--5--5-5-5-5---5-5-5-5-|
|-----------------------3--3-3-3-3---3-3-3-3---------------------------------------------|

|-------------------------------------------------------------------------------------------|
|-------------------------------------------------------------------------------------------|
|-------------------------------------------------------------------------------------------|
|-2--2-2-3-3h5-5-5-5-3------------------------4--4-4-5-5h7-7-7-7-5--4--4-4-5-5h7-7-7-7-5----|
|-3--3-3-3-3---3-3-3-3--2--2-2-3-3h5-5-5-5-3--5--5-5-5-5---5-5-5-5--5--5-5-5-5---5-5-5-5--3-|
|-----------------------3--3-3-3-3---3-3-3-3------------------------------------------------|




       (PIANO ARRANGED FOR GUITAR)
|-------------3------------------||--------|
|---1-----------3------------3p0-||--------|
|-----0-----------4--------2-----||--------|
|-------2-----------5--0---------||---x---|
|-3------------------------------||---x---|
|----------3---------------------||--------|
                                     (pick scrape)
I love the way you love
But I hate the way
I'm supposed to love you back

|--------------------------------------------------------------------------------------|
|--------------------------------------------------------------------------------------|
|-5--5-5-----5--5-5---------------------------7-7-----7--7-7-----7--7-7-----7--7-7-----|
|-5--5-5-x-x-5--5-5-x-x-5--5-5-x-x-5--5-5-x-x-7-7-x-x-7--7-7-x-x-7--7-7-x-x-7--7-7-x-x-|
|-3--3-3-x-x-3--3-3-x-x-5--5-5-x-x-5--5-5-x-x-5-5-x-x-5--5-5-x-x-5--5-5-x-x-5--5-5-x-x-|
|-3--3-3-x-x-3--3-3-x-x-3--3-3-x-x-3--3-3-x-x-5-5-x-x-5--5-5-x-x-5--5-5-x-x-5--5-5-x-x-|

It's just a fad
Part of the teenage angst brigade and

                    2x
|---------------------||--------------------------------------------|
|-----3---------3-----||------1----------1---------1----------1-----|
|-------0---------0---||--------2----------2---------2----------2---|
|---2-----0---0-----0-||----2-----2----2-----2---2-----2----2-----2-|
|-3-------------------||-0----------0----------0---------0----------|
|-----------3---------||--------------------------------------------|

I'm not, not sure,
Not too sure how it feels

|--------------------------------------------||--------------------------------------------|
|-----0----------0----------0----------0-----||------1----------1---------1----------1-----|
|-------0----------0----------0----------0---||--------2----------2---------2----------2---|
|---2-----2----2-----2----2-----2----2-----2-||----2-----2----2-----2---2-----2----2-----2-|
|--------------------------------------------||-0----------0----------0---------0----------|
|-0---------0----------0----------0----------||--------------------------------------------|

To handle every day
Like the one that just past

|-----2---------2---------1---------0-----|
|-------3---------3---------3---------3---|
|---2-----2---2-----2---2-----2---0-----0-|
|-0---------0---------0-------------------|
|-----------------------------------------|
|-------------------------------3---------|

In the crowds of all the people

             2x                   2x              2x                   2x
|----2----0----||----0----0----0----||----2----0----||----0----0----0----|
|----2----0----||----3----0----0----||----2----0----||----3----0----0----|
|----2----1----||----2----2----1----||----2----1----||----2----2----1----|
|----4----2----||----0----2----2----||----4----2----||----0----2----2----|
|----4----2----||---------0----2----||----4----2----||---------0----2----|
|----2----0----||--------------0----||----2----0----||--------------0----|
      (strumming not notated)

Remember today
I've no respect for you
And I miss you love
And I miss use love 
Remember two days
I've no respect for you
And I miss you love
And I miss use love

|-----------------------------------------------0--------0---------------------------------
|-----------------------------------------------5p0------5p0----------------------0--------
|-----0---------0---------0---------0---------0------0--------0-------0-------------0------
|---2---2-----2---2-0-------0-----0---0-2/4------------4--------4---2---2-------2-----0----
|-3-------3-3-----------2---------------3/5-5---------------------3-------3-2h3------------
|---------------------3-------0h3----------------------------------------------------------

---------------------------|
------0--------------------|
--------0----------0-------|
----0-----0----------0-2/4-|
-----------------2-----3/5-|
-3-----------0h3-----------|

I love the way you love
But I hate the way
I'm supposed to love you back

-------------------------------------------------------------------------------------------------

Transcribed by Denis Bourdon ([email protected])
http://members.aol.com/denbourdon/silverbsides.htm
--------------------------------------------------

Tablature explanation

b   : bend
s   : slide
h   : hammer-on
p   : pull-off
x   : muffled string
P.M.: palm mute

Standard tuning

[0:00]
clean tone
       C         G         D
e||----------------0----0-----------------------------|| x2
B||------1----1---0-0--0-0---3-----3-----3------3-----||
G||-o---0-0--0-0-----0----0-2-2---2-2---2-2----2-2--o-||
D||-o------2----2----------0---0-0---0-0---0-0------o-||
A||----3----3-----------------------------------------||
E||--------------3----3-------------------------------||
Millionaire say
Got a big shot deal
And thrown it all away but
But I'm not too sure
How I'm supposed to feel
Or what I'm supposed to say but...

      C     G        x2 Am                      Em
||------------0------||-------------------------------------------------|
||------1----0-0-----||---1-----1-----1-----1-----0-----0-----0-----0---|
||-o---0-0------0--o-||--2-2---2-2---2-2---2-2---0-0---0-0---0-0---0-0--|
||-o------2--------o-||-----2-----2-----2-----2-----2-----2-----2-----2-|
||----3--------------||-0-----0-----0-----0-----------------------------|
||----------3--------||-------------------------0-----0-----0-----0-----|
I'm not, not sure,
Not too sure how it feels
To handle every day

   C    G     D
|---------0---2--|
|----1---0-0--3--|
|---0-0-----0-2--|
|------2------0--|
|--3-------------|
|-------3--------|
And I miss you love

[0:42]
      C         G         D
||----------------0----0-----------------------------|| x2
||------1----1---0-0--0-0---3-----3-----3------3-----||
||-o---0-0--0-0-----0----0-2-2---2-2---2-2----2-2--o-||
||-o------2----2----------0---0-0---0-0---0-0------o-||
||----3----3-----------------------------------------||
||--------------3----3-------------------------------||
Make room for the prey
'Cause I'm coming in
With what I wanna say but
It's gonna hurt
And I love the pain
A breeding ground for hate but... 

      C     G        x2 Am                      Em
||------------0------||-------------------------------------------------|
||------1----0-0-----||---1-----1-----1-----1-----0-----0-----0-----0---|
||-o---0-0------0--o-||--2-2---2-2---2-2---2-2---0-0---0-0---0-0---0-0--|
||-o------2--------o-||-----2-----2-----2-----2-----2-----2-----2-----2-|
||----3--------------||-0-----0-----0-----0-----------------------------|
||----------3--------||-------------------------0-----0-----0-----0-----|
I'm not, not sure,
Not too sure how it feels
To handle every day

  Am                      D           Dm   G
|----------------------------2-----2-----1---0---|
|---1-----1-----1-----1-----3-3---3-3---3---0-0--|
|--2-2---2-2---2-2---2-2---2-----2-----2-------0-|
|-----2-----2-----2-----2-0-----0-----0----------|
|-0-----0-----0-----0----------------------------|
|------------------------------------------3-----|
Like the one that just past
In the crowds of all the people

[1:27]
      F# E  F# E   D  A  E   D  A  E    x2
||----2--0--2--0-|-2--0--0-|-2--0--0----||
||----2--0--2--0-|-3--2--0-|-3--2--0----||
||-o--3--1--3--1-|-2--2--1-|-2--2--1--o-||
||-o--4--2--4--2-|-0--2--2-|-0--2--2--o-||
||----4--2--4--2-|----0--2-|----0--2----||
||----2--0--2--0-|-------0-|-------0----||
Remember today
I've no respect for you
And I miss you love
And I miss you love 

[1:49] distortion on
      C          Cadd9      G          Gadd9
||------------------------------------------------|
||----5--5-5-5-5-6--6-6-6-6-----------------------|
||-o--5--5-5-5-5-5--5-5-5-5-5--5-5-5-5-6--6-6-6-6-|
||-o--5--5-5-5-5-5--5-5-5-5-5--5-5-5-5-5--5-5-5-5-|
||----3--3-3-3-3-3--5-5-5-5-5--5-5-5-5-5--5-5-5-5-|
||--------------------------3--3-3-3-3-3--3-3-3-3-|

  D          Dadd9      D          Dadd9         x2
|------------------------------------------------||
|-7--7-7-7-7-8--8-8-8-8-7--7-7-7-7-8--8-8-8-8----||
|-7--7-7-7-7-7--7-7-7-7-7--7-7-7-7-7--7-7-7-7--o-||
|-7--7-7-7-7-7--7-7-7-7-7--7-7-7-7-7--7-7-7-7--o-||
|-5--5-5-5-5-5--5-5-5-5-5--5-5-5-5-5--5-5-5-5----||
|------------------------------------------------||

[2:09] distortion off
  C         G         D
|-------------0----0--------------------------|
|---1----1---0-0--0-0---3-----3-----3------3--|
|--0-0--0-0-----0----0-2-2---2-2---2-2----2-2-|
|-----2----2----------0---0-0---0-0---0-0-----|
|-3----3--------------------------------------|
|-----------3----3----------------------------|
I love the way you love
But I hate the way
I'm supposed to love you back

distortion on
  C5                G5                 D5
|------------------------------------|------------------------------------|
|------------------------------------|------------------------------------|
|-5-5-5-5--5-5-5-5-------------------|-5-5-5-5--5-5-5-5--5-5-5-5--5-5-5-5-|
|-5-5-5-5--5-5-5-5--5-5-5-5--5-5-5-5-|-5-5-5-5--5-5-5-5--5-5-5-5--5-5-5-5-|
|-3-3-3-3--3-3-3-3--5-5-5-5--5-5-5-5-|-7-7-7-7--7-7-7-7--7-7-7-7--7-7-7-7-|
|-------------------3-3-3-3--3-3-3-3-|------------------------------------|
It's just a fad
Part of the teenage angst brigade and

[2:30] distortion off
   C     G        Am                      Em
|----------0----|-------------------------------------------------|
|----1----0-0---|---1-----1-----1-----1-----0-----0-----0-----0---|
|---0-0------0--|--2-2---2-2---2-2---2-2---0-0---0-0---0-0---0-0--|
|------2--------|-----2-----2-----2-----2-----2-----2-----2-----2-|
|--3------------|-0-----0-----0-----0-----------------------------|
|--------3------|-------------------------0-----0-----0-----0-----|
I'm not, not sure,
Not too sure how it feels
To handle everyday

  Am                      D           Dm   G
|----------------------------2-----2-----1---0---|
|---1-----1-----1-----1-----3-3---3-3---3---0-0--|
|--2-2---2-2---2-2---2-2---2-----2-----2-------0-|
|-----2-----2-----2-----2-0-----0-----0----------|
|-0-----0-----0-----0----------------------------|
|------------------------------------------3-----|
Like the one that just past
In the crowds of all the people

[2:54]
      F# E  F# E   D  A  E   D  A  E    x2
||----2--0--2--0-|-2--0--0-|-2--0--0----||
||----2--0--2--0-|-3--2--0-|-3--2--0----||
||-o--3--1--3--1-|-2--2--1-|-2--2--1--o-||
||-o--4--2--4--2-|-0--2--2-|-0--2--2--o-||
||----4--2--4--2-|----0--2-|----0--2----||
||----2--0--2--0-|-------0-|-------0----||
Remember today
I've no respect for you
And I miss you love
And I miss use love 
Remember two days
I've no respect for you
And I miss you love
And I miss use love

[3:37]
  C         G         D                          C    G     D
|-------------0----0--------------------------|---------0---2--|
|---1----1---0-0--0-0---3-----3-----3------3--|----1---0-0--3--|
|--0-0--0-0-----0----0-2-2---2-2---2-2----2-2-|---0-0-----0-2--|
|-----2----2----------0---0-0---0-0---0-0-----|----2--------0--|
|-3----3--------------------------------------|--3-------------|
|-----------3----3----------------------------|-------3--------|
I love the way you love
But I hate the way
I'm supposed to love you back


_____________________________________________________________________


Versão 2
-======-

C		  G    	  D
Millionaire say got a big shot deal
     D4          D
And trown it all away but
C			G
But I'm not too sure
		D
How I'm supposed to feel
    D4
Or what I'm supposed
   D
to say but
C	   G			C
I'm not,  not sure,
	     G
not too sure
         Am
How it feels handle
	Em
everyday and
Am      G   D
I miss you love
C
To be superior make room
	    G
For the prey
         G
Cause I'm coming in with what I wanna say but
C		  G
It's gonna hurt
    D
And I love the pain
A breeding ground for
hate but...


C        G	  C
I'm not,  not sure           
          G                  |
not too sure                 |
      Am                     |
How it feels to handle       |
      Em                     |
everyday                     |---> Refrão
                       Am    |
Like the one that just past  |
in the crowds                |
          D          Bb   C  |
Of all the people...         |
                            /


F#m         A9/E        F#m      
Remember today      I've no
            A9/E
respect for you
  D    A        E
And I miss you love
 D     A        E 
And I miss you love



Solos:  C  G  D  C  G  D


C			     G
I love the way you love
       D
But I hate the way
I'm supposed to love you back
C		  G
It's just a fad
             D
Part of the teenage
Angst brigade



Repete refrão


F#m            A9/E     F#m
Remember today     I've no
               A9/E
respect for you
      D    A     E
And I miss you love
      D    A     E
And I miss you love
F#m           A9/E       F#m
Remember today    I've no
              A9/E
respect for you
       D     A   E
And I miss you love
      D     A    E
And I miss you
C      			G
I love the way you love
     D
But I hate the way
      D4
I'm supposed to love
      D        C  G  D
you back





Quer fazer uma correção nesta cifra?







    Comentários (0) Postar um Comentário

    Nenhum comentário encontrado. Seja o primeiro!