Cifra da música: Suicidal Dream - Silverchair

Esse cifra de Silverchair já foi acessado por 741 pessoas.

Comente

A música Suicidal Dream fez muito sucesso quando foi gravada por Silverchair. Quer conhecer a letra dela? Veja a letra de Suicidal Dream e cante.

Veja também o vídeo da música tocada.


 
**Key**
/-slide
x-play muffled strings

**Tuning** Standard (EADGBE--low to high)

Fig 1 intro/verse
E|-----------------------------------|                  E|--0--------|
B|-----------------------------------|                  B|----0------|
G|-------4-----4---------4-----4---4-|  before entering 
D|-----4-----4---4-----4-----4-------|  the next verse
A|-0-2---------------------------0---|  add this to the 
E|---------3-------3-0-----2---------|  end 

Fig 2 chorus  (just the chord progression)
E|-2----2----0----3-|
B|-3----2----0----3-|
G|-4----3----0----0-|
D|-4----4----2----0-|
A|-2----4----2----2-|
E|-2----2----0----3-|

Fig 3 interlude/solo
E|-----------------------------------|
B|----3------------------------------|
G|-------4-2---------3---------------|
D|------------4---------4-2----------|
A|-2-------------5-4---------4/5-4-2-|
E|-----------------------------------|

GTR2 (solo part), when playing live Daniel just plays this, no solo
E|---------------------|
B|---------------------|
G|-4--7-7--------------|
D|-4--7-7--0--5---4--4-|
A|-2--5-5--0--5-x-4--4-|
E|------------3-x-2--2-|


Quer fazer uma correção nesta cifra?








    Comentários (0) Postar um Comentário

    Nenhum comentário encontrado. Seja o primeiro!