Cifra da música: The Greatest View - Silverchair

Esse cifra de Silverchair já foi acessado por 721 pessoas.

Comente

A música The Greatest View fez muito sucesso quando foi gravada por Silverchair. Quer conhecer a letra dela? Veja a letra de The Greatest View e cante.

Veja também o vídeo da música tocada.


Lista de Acordes:
   A     Amaj     Am     Asus      D      D7      Dm7     B7      Bm       E      F      F#m       G       C       Bb
e|-0-|  e|-0-|  e|-0-|  e|-0-|  e|-5-|  e|-5-|  e|-5-|  e|---|  e|-2-|  e|-0-|  e|---|  e|-2-|  e|---|  e|-0-|  e|---|
B|-5-|  B|-2-|  B|-5-|  B|-5-|  B|-7-|  B|-7-|  B|-6-|  B|-0-|  B|-3-|  B|-0-|  B|-1-|  B|-2-|  B|-3-|  B|-1-|  B|-6-|
G|-6-|  G|-1-|  G|-5-|  G|-7-|  G|-7-|  G|-5-|  G|-5-|  G|-8-|  G|-4-|  G|-1-|  G|-2-|  G|-2-|  G|-4-|  G|-0-|  G|-7-|
D|-7-|  D|-2-|  D|-7-|  D|-7-|  D|-7-|  D|-7-|  D|-7-|  D|-7-|  D|-4-|  D|-2-|  D|-3-|  D|-4-|  D|-5-|  D|-2-|  D|-8-|
A|-0-|  A|-0-|  A|-0-|  A|-0-|  A|-5-|  A|-5-|  A|-5-|  A|-6-|  A|-2-|  A|-2-|  A|-3-|  A|-4-|  A|-5-|  A|-3-|  A|-8-|
E|---|  E|---|  E|---|  E|---|  E|---|  E|---|  E|---|  E|-7-|  E|---|  E|-0-|  E|---|  E|-2-|  E|---|  E|---|  E|---|

Introdução
e||---------------------------------------------------------||
B||---------------------------------------------------------||
G||---------------------------------------------------------||
D||------------------------------------------------3-2-0-2--||
A||------12-11-10~-7-10-9-7~------------2--------2----------||
E||--0-0---------------------0-3-1~--0-1-1~--0-1------------||


e||---------------------------------------------------------||
B||---------------------------------------------------------||
G||---------------------------------------------------------||
D||------11-10--9-----9-8-9----------------------3-2-0-2----||
A||------12-11-10----10-9-7------------2-------2------------||
E||--0-0-----------0--------0-3-1~--0-1-1~-0-1--------------||

VERSO 1
A                  B7
You're the analyst, the fungus in my milk
A             Am     A              E
When you want no-one and you've got someone
A                          B7
Through the wind you crawl and laugh at burning dunes
     Bb               F    G
When no one else will ever see

PRE-CHORUS
Asus         A            C         D
Now that you know why you feel like you do
Asus                  A                C        D
They're turning their head whilst they wait for no-one
  Asus        A            C          D
And finally I know why you feel like letting go

e|-----------------|
B|-----------------|
G|--14--13--11--9--|
D|-----------------|
A|--12--11--9---7--|
E|-----------------|


REFRÃO
A            Amaj           Bm
I'm watching you watch over me
                 D7       Dm7
And I've got the greatest view from here

BRIDGE
[1:19]
e||----------------------------------3p0--------------5p2p0----------------------9---7----------------------------------------|| x1
B||-----3--0--2--2--0h2-0-0------1-------0h1------3-----------------3--0--2---------------------------------------------------||
G||-----2--2--2----------2--------0---------------------------------2--2--2----9---7---6-------------5--------------7---------||
D||---2------------------------2----------------4---4-------------2----------------------------5---5---5---5-------7---7---7--||
A||-0------------------------3----------------5-----------------0----------------------------3---3-------3---5---5-------5----||
E||---------------------------------------------------------------------------------------------------------------------------||

VERSO 2
A                           B7
Mistakes don't mean a thing if you don't regret them
A            Am     A            E
So pack your tactic toes for the winter
A                       B7
Chain a waterfall to burned and withered skin
C                D
No one else will ever see 

REFRÃO
A            Amaj           Bm
I'm watching you watch over me
                 D7       Dm7
And I've got the greatest view from here

OUTRO
e||---------------------------------------------------------|| x2
B||---------------------------------------------------------||
G||---------------------------------------------------------||
D||------------------------------------------------3-2-0-2--||
A||------12-11-10~-7-10-9-7~------------2--------2----------||
E||--0-0---------------------0-3-1~--0-1-1~--0-1------------||


e||---------------------------------------------------------------------------|| x1
B||---------------------------------------------------------------------------||
G||---------------------------------------------------------------------------||
D||------11-10--9-----9-8-9---------------------------------------------------||
A||------12-11-10----10-9-7------33-x-x---3-66-x-x--5-6--2-4-5--------5-7-8---||
E||--0-0-----------0---------0-3-11-x-x-0-1-44-x-x--3-4--------3--5-6-------6-||


PRE-CHORUS
Asus         A            C         D
Now that you know why you feel like you do
Asus                  A                C        D
They're turning their head whilst they wait for no-one
    Asus      F#m  F#5-E5 C5              D5             *Olhe a TAB dessa parte para entender melhor.
And finally I know why I feel like you're letting me go

e||--0-0---2-------------------------------------||
B||--5-5---2-------------------------------------||
G||--7-7-- 2---------5-5--x-x-x-x--7-7--x-x-x-x--||
D||--7-7---4---4-2---5-5--x-x-x-x--7-7--x-x-x-x--||
A||--0-0---4---4-2---3-3--x-x-x-x--5-5--x-x-x-x--||
E||--------2---2-0--------x-x-x-x-------x-x-x-x--||

e|-----------------|
B|-----------------|
G|--14--13--11--9--|
D|-----------------|
A|--12--11--9---7--|
E|-----------------|
 
REFRÃO(2x)
A            Amaj           Bm
I'm watching you watch over me
                 D7       Dm7
And I've got the greatest view from here 

Bom.. é isso aí. 
Qualquer dúvida, me mande um e-mail.
Thanx 

[email protected]




Quer fazer uma correção nesta cifra?







    Comentários (0) Postar um Comentário

    Nenhum comentário encontrado. Seja o primeiro!