Cifra da música: Too Much of Not Enough - Silverchair

Esse cifra de Silverchair já foi acessado por 861 pessoas.

Comente

A música Too Much of Not Enough fez muito sucesso quando foi gravada por Silverchair. Quer conhecer a letra dela? Veja a letra de Too Much of Not Enough e cante.

Veja também o vídeo da música tocada.


Lista de acordes:
   C  Dsus4add9 C2      G     Cm     G#    Fsus    Fm     D#     Dm     Cm
e|-0-| e|-0-| e|-3-| e|-3-| e|-3-| e|-4-| e|-1-| e|-1-| e|-6-| e|-5-| e|-3-|
B|-1-| B|-3-| B|-3-| B|-3-| B|-4-| B|-4-| B|-1-| B|-1-| B|-8-| B|-6-| B|-4-|
G|-0-| G|-0-| G|-0-| G|-0-| G|-5-| G|-5-| G|-0-| G|-1-| G|-8-| G|-7-| G|-5-|
D|-2-| D|-4-| D|-2-| D|-0-| D|-5-| D|-6-| D|-3-| D|-3-| D|-8-| D|-7-| D|-5-|
A|-3-| A|-5-| A|-3-| A|-2-| A|-3-| A|-6-| A|-3-| A|-3-| A|-6-| A|-5-| A|-3-|
E|---| E|---| E|---| E|-3-| E|---| E|-4-| E|-1-| E|-1-| E|---| E|---| E|---|


[0:00]Introdução:

C Dsus4add9 G 
e||-0/0-0-0-3--3-3-3-3-|| x2
B||-1/3-3-3-3--3-3-3-3-||
G||-0/0-0-0-0--0-0-0-0-||
D||-2/4-4-4-0--0-0-0-0-||
A||-3/5-5-5-2--2-2-2-2-||
E||---------3--3-3-3-3-||

    C2       G
She tripped on a hole
        C2        G        C 
That I dug in a the soil to be part of a human garden

C2       G          C2               G
I couldn't stand in the straight postured sun
        Cm             C
But you stood in the mud
                            G#         G
But you came out soiled when I came along
    G#       C         G#
When I came along, when I came along

Guitarra fill
e||----------------||
B||----------------||
G||----------------||
D||-4-5-4h5--7-4-5-||
A||----------------||
E||----------------||
         Fsus        G#
See you never stopped needing
     Fsus        G#
You never stopped needing

Refrão (Tablatura)
   Fm                   D#  Dm  Cm 
e||---------------------6-6-5-5-3-|| x2
B||---------------------8-8-6-6-4-||
G||-----1----------1----8-8-7-7-5-||
D||-------3--3h5-----3--8-8-7-7-5-||
A||---------------------6-6-5-5-3-||
E||-1-1---------------------------||
A close look at someone so close
Too much of not enough




   Fm                   G# 
e||-------------------------------------|| 
B||-------------------------------------||
G||-----1----------1----5-5-5-5-5-5-5-5-||
D||-------3--3h5-----3--6-6-6-6-6-6-6-6-||
A||---------------------6-6-6-6-6-6-6-6-||
E||-1-1-----------------4-4-4-4-4-4-4-4-||
All we need is just a taste

Refrão (Cifra)

Fm
A close look at someone so close
D#   Dm    Cm
Too much of not enough
Fm
A close look at someone so close
D#   Dm    Cm
Too much of not enough
Fm                   G#
All we need is just a taste

[1:14]Bridge
    C2    G    C2
e||-3-3-3-3-3-3-3~-|| Piano toca : |-------------------|
B||-3-3-3-3-3-3-3~-||              |-------10-10-10----|
G||-0-0-0-0-0-0-0~-||              |-7-7-7----------11-|
D||-2-2-2-0-0-0-2~-||              |-------------------|
A||-3-3-3-2-2-2-3~-||              |-------------------|
E||-------3-3-3----||              |-------------------|

    C2      G        C2      G
I strap myself in for a safe second ride
           C
Before we starting our train
     C2     G 
To be anything I saw fit
 C2  G           Cm
And it all seems to fail

[1:35] Guitarra fill 
e||-------------------------||
B||-13---12--10--8/11-108--||
G||-x----x---x---x/x--x-x--||
D||-10---9---7---5/8--7-5--||
A||-------------------------||
E||-------------------------||

  Cm                    G#      G
But you came undone when I came along
     G#     C           G#
When I came along, when I came along


Guitarra fill 
e||----------------||
B||----------------||
G||----------------||
D||-4-5-4h5--7-4-5-||
A||----------------||
E||----------------||

           Fsus      G#
See you never stopped needing
         Fsus    G#
You never stopped needing

[2:05]
Guitarra fill 
e||---------||
B||---------||
G||---------||
D||---------||
A||---------||
E||-5-4-3-0-||

Refrão (Tablatura)
    Fm                  D#  Dm  Cm 
e||---------------------6-6-5-5-3-|| x2
B||---------------------8-8-6-6-4-||
G||-----1----------1----8-8-7-7-5-||
D||-------3--3h5-----3--8-8-7-7-5-||
A||---------------------6-6-5-5-3-||
E||-1-1---------------------------||
A close look at someone so close
Too much of not enough

    Fm                  G# 
e||---------------------------------------|| 
B||---------------------------------------||
G||-----1----------1----5-5-5-5-5-5-5-5-5~||
D||-------3--3h5-----3--6-6-6-6-6-6-6-6-6~||
A||---------------------6-6-6-6-6-6-6-6-6~||
E||-1-1-----------------4-4-4-4-4-4-4-4-4~||
All we need is just a taste

Refrão (cifra)
Fm
A close look at someone so close
D#   Dm    Cm
Too much of not enough
Fm
A close look at someone so close
D#   Dm    Cm
Too much of not enough
Fm                    G#
All we need is just a taste


[2:27]
e||-0-0-0--0-0-0-0-0-0-0-0-3--3-3-3-3-3-3-| |-0-0-0--0-0-0-0-0-0-0-0-3--3-3-3-3-3-3-|| x2
B||-1-0-1--1-1-1-1-1-1-1-0-3--3-3-3-3-3-3-| |-1-0-3--3-3-3-3-3-3-1-3-3--3-3-3-3-3-3-||
G||-0-0-0--0-0-0-0-0-0-0-0-0--0-0-0-0-0-0-| |-0-0-0--0-0-0-0-0-0-0-0-0--0-0-0-0-0-0-||
D||-2-2-2--2-2-2-2-2-2-2-2-0--0-0-0-0-0-0-| |-2-2-2--2-2-2-2-2-2-2-2-0--0-0-0-0-0-0-||
A||-0-0-3--3-3-3-3-3-3-0-0-2--2-2-2-2-2-2-| |-0-0-3--3-3-3-3-3-3-0-3-2--2-2-2-2-2-2-||
E||------------------------3--3-3-3-3-3-3-| |------------------------3--3-3-3-3-3-3-||

e||-0-0-0--0-0-0-0-0-0-0-0-3--3-3-3-3-3-3-||
B||-1-0-3--3-3-3-3-3-3-1-3-3--3-3-3-3-3-3-||
G||-0-0-0--0-0-0-0-0-0-0-0-0--0-0-0-0-0-0-||
D||-2-2-2--2-2-2-2-2-2-2-2-0--0-0-0-0-0-0-||
A||-0-0-3--3-3-3-3-3-3-0-3-2--2-2-2-2-2-2-||
E||------------------------3--3-3-3-3-3-3-||
And I walk by and share our truth

e||-0-0-0--0-0-0-0-0-0-0-0-3--3-3-3-3-3-3-||
B||-1-0-1--1-1-1-1-1-1-1-0-3--3-3-3-3-3-3-||
G||-0-0-0--0-0-0-0-0-0-0-0-0--0-0-0-0-0-0-||
D||-2-2-2--2-2-2-2-2-2-2-2-0--0-0-0-0-0-0-||
A||-0-0-3--3-3-3-3-3-3-0-0-2--2-2-2-2-2-2-||
E||------------------------3--3-3-3-3-3-3-||
Broken stakes and stolen youth

e||-0-0-0--0-0-0-0-0-0-0-0-3--3-3-3-3-3-3------------||
B||-1-0-3--3-3-3-3-3-3-1-3-3--3-3-3-3-3-3------------||
G||-0-0-0--0-0-0-0-0-0-0-0-0--0-0-0-0-0-0------------||
D||-2-2-2--2-2-2-2-2-2-2-2-0--0-0-0-0-0-0------------||
A||-0-0-3--3-3-3-3-3-3-0-3-2--2-2-2-2-2-2------------||
E||------------------------3--3-3-3-3-3-3--5-4-3-0-1-||
I've seen to much of not enough

[3:14]
e||-----------------------------|| x2  
B||-----------------------------|| (Esta Parte é tocada realmente rápida.)
G||-12-------13----15---12---10-||
D||-----------------------------||
A||-----------------------------||
E||-----------------------------||
You came much closer than this hell before

e||------------------------|| 
B||------------------------|| (Esta Parte é tocada realmente rápida.)
G||-12-------13----15---12-||
D||------------------------||
A||------------------------||
E||------------------------||
You came much closer than they had before

[3:33]Descanso:

(cifra)
Fm |Fm |D# |Dm Cm 
Fm |Fm |D# |Dm Cm 
Fm |Fm |D# |Dm Cm 
Fm |Fm |D# |Dm Cm 

(Tablatura)
e||---------------------------|| x4
B||---------------------------|| 
G||---------------------------||
D||-5-3-5-6-----8---5---3---1-||
A||---------------------------||
E||---------------------------||
[3:58]
    Fm                    Cm
e||--------------------------------------------|| x4 
B||-----1---------1-----------4--------4-------|| 
G||-------1---------1---1-------5--------5---5-||
D||---------3---------3-----5--------5-----5---||
A||---3---------3---------3--------3-----------||
E||-1------------------------------------------||

You never stopped needing
You never stopped needing
You never stopped needing
And it's good for nothing

[4:24] Outro
e||--------------------------------------------|| 
B||-----1---------1-----------4--------4-------|| 
G||-------1---------1---1-------5--------5---5-||
D||---------3---------3-----5--------5-----5---||
A||---3---------3---------3--------3-----------||
E||-1------------------------------------------||

e||--------------------------------------------|| 
B||-----1---------1-----------4-----------4----|| 
G||-------1---------1---1-------5--------------||
D||---------3---------3-----5---------5--------||
A||---3---------3---------3--------3-----------||
E||-1------------------------------------------||





Quer fazer uma correção nesta cifra?








    Comentários (0) Postar um Comentário

    Nenhum comentário encontrado. Seja o primeiro!