Cifra da música: The Lever - Silverchair

Esse cifra de Silverchair já foi acessado por 601 pessoas.

Comente

A música The Lever fez muito sucesso quando foi gravada por Silverchair. Quer conhecer a letra dela? Veja a letra de The Lever e cante.

Veja também o vídeo da música tocada.


Dropped C-tuning down half a step
from low to high: B, F#, B, E, G#, C#. 
Almost the whole song is partially palm muted so
when it says that you should palm mute that means a 100% pm 


C#|------------------------|
G#|------------------------|
E |------------------------|
B |-0-0-0-2-0-0-0-2-3-2----|
F#|-0-0-0-2-0-0-0-2-3-2----|
B |-0-0-0-2-0-0-0-2h3p2----|

Living your life like you're born in a tree
He doesn't know how it feels
Under my thumb like a bone and a nail
She's in the know, how's it feel?


|----------------------------------|
|----------------------------------|
|----------------------------------|
|-6-5-0-6-5-0-6-5-0-6-5-0-6-5-0----|
|-6-5-0-6-5-0-6-5-0-6-5-0-6-5-0----|
|-6p5p0-6p5p0-6p5p0-6p5p0-6p5p0----|

  
|--------------------|
|--------------------|
|--------------------|
|-0-0-2-0-0-7-6-5----|
|-0-0-2-0-0-7-6-5----|
|-0-0-2-0-0-7-6-5----|

Live your life under machine guns
Canary down the mine

   
|---------------------------------------------------------------------------|
|---------------------------------------------------------------------------|
|-11-11-11-11-11---12--5---11-11-11-11-11--12--5--11-11-11-11-11---12--3----|
|---------------------------------------------------------------------------|
|--9--9--9--9--9---10--3----9--9--9--9--9--10--3---9--9--9--9--9---10--1----|
|---------------------------------------------------------------------------|
  Maybe I'm on the lever  Maybe I'm on the lever  Maybe I'm on the lever

|------------------------|
|------------------------|
|------------------------|
|-0-0-0-2-0-0-0-2-3-2----|
|-0-0-0-2-0-0-0-2-3-2----|
|-0-0-0-2-0-0-0-2h3p2----|

 Spoiling my broth like a radio kid 
 Programme computes to as mind
 Waving my luck under your nose
 Like a founded four-leave cloaver
  
|----------------------------------|
|----------------------------------|
|----------------------------------|
|-6-5-0-6-5-0-6-5-0-6-5-0-6-5-0----|
|-6-5-0-6-5-0-6-5-0-6-5-0-6-5-0----|
|-6p5p0-6p5p0-6p5p0-6p5p0-6p5p0----|2x 2nd time palm mute all


|--------------------|
|--------------------|
|--------------------|
|-0-0-2-0-0-7-6-5----|
|-0-0-2-0-0-7-6-5----|
|-0-0-2-0-0-7-6-5----|

Live your life under machine guns
Canary down the mine 
   
|---------------------------------------------------------------------------|
|---------------------------------------------------------------------------|
|-11-11-11-11-11---12--5---11-11-11-11-11--12--5--11-11-11-11-11---12--3~~--|
|---------------------------------------------------------------------------|
|--9--9--9--9--9---10--3----9--9--9--9--9--10--3---9--9--9--9--9---10--1~~--|
|---------------------------------------------------------------------------|
  Maybe I'm on the lever  Maybe I'm on the lever  Maybe I'm on the lever

  
|------------------------------------|
|------------------------------------|
|-------------7-6--------------------|
|-0-0-2-3-2-0-7-6--2-0-2-3-2-1-0-----|
|-0-0-2-3-2-0-5-4--2-0-2-3-2-1-0-----|
|-0-0-2-3-2-0------2-0-2-3-2-1-0-----|6x


   
|---------------------------|
|-15-14-13---11-13----------|
|------------------12-13-14-|
|---------------------------|
|---------------------------|
|---------------------------|3x


   
|-----------------------------10-12-13-15-12-12-10-12-13-10------------------------|
|-15-14-13---11-13-----------------------------------------------------------------|
|------------------12-13-14--------------------------------------------------------|
|-----------------------------------------------------------12b14r12---12b14r12----|
|--------------------------------------------------------------------15---------12-|
|----------------------------------------------------------------------------------|
                              Or do you need a little more?
                              
Turn the mirrors face the wall 
Don't you feel a little weak?
And I catch you when you fall
But you're falling all the time 
Do you need it anymore?
Or do you need a little more?
  
|-------------------|-------------------|----------------------|
|-------------------|-------------------|----------------------|
|-----14---------14-|-----14---------14-|-----14---------14----|
|-------------------|-------------------|----------------------|
|-----12---------12-|-----12---------12-|-----12---------12----|
|-0-0----0-0-0-0----|-0-0----0-0-0-0----|-0-0----0-0-0-0-------|


|---------------------------------|
|---------------------------------|
|-----13---14---15---16-----17----|
|---------------------------------|
|-----11---12---13---14-----15----|
|-0-0----0----0----0----0-0-------| 

|---------------------------------------------------------------------------|
|---------------------------------------------------------------------------|
|-11-11-11-11-11---12--5---11-11-11-11-11--12--5--11-11-11-11-11---12--3~~--|
|---------------------------------------------------------------------------|
|--9--9--9--9--9---10--3----9--9--9--9--9--10--3---9--9--9--9--9---10--1~~--|
|---------------------------------------------------------------------------|2x
  Maybe I'm on the lever  Maybe I'm on the lever  Maybe I'm on the lever
|------------------------------------|
|------------------------------------|
|-------------7-6--------------------|
|-0-0-2-3-2-0-7-6--2-0-2-3-2-1-0-----|
|-0-0-2-3-2-0-5-4--2-0-2-3-2-1-0-----|
|-0-0-2-3-2-0------2-0-2-3-2-1-0-----|5x slowly, palm muted.
|------------------------------------|
|------------------------------------|
|-------------7-6--------------------|
|-0-0-2-3-2-0-7-6--2-0-2-3-2-1-0-----|
|-0-0-2-3-2-0-5-4--2-0-2-3-2-1-0-----|
|-0-0-2-3-2-0------2-0-2-3-2-1-0-----|

Turn the mirrors face the wall 
dont you feel a little weak
And i catch you when you fall
But you're falling all the time 

|-10-10--10---12-13-15-12------12-10--12---13-10-----10-|
|-------------------------------------------------------|
|-------------------------------------------------------|
|-------------------------------------------------------|
|-------------------------------------------------------|
|-------------------------------------------------------|
  Do you need it a  n  y more, do you need a  little more


|------------------------------------------------------|
|------------------------------------------------------|
|-0--0---0----0--2-3-5-2-----2--0---2----3-2--0---0----|
|-0--0---0----0--2-3-5-2-----2--0---2----3-2--0---0----|
|-0--0---0----0--2-3-5-2-----2--0---2----3-2--0---0----|
  Do you need it a n y more, do you need a little more
  
|-10-10--10------------------12-10--12---13-12--10---|
|-------------10-10-9---8----------------------------|
|----------------------------------------------------|
|----------------------------------------------------|
|----------------------------------------------------|
|----------------------------------------------------|
  Do you need a  little more, do you need a little
  
|-------------------------------------------------|
|-------------------------------------------------|
|-0--0---0----7--7-6---5-----2--0---2----3-2--1---|
|-0--0---0----7--7-6---5-----2--0---2----3-2--1---|
|-0--0---0----7--7-6---5-----2--0---2----3-2--1---|
  Do you need a little more, do you need a little 
  
|------------------------------|
|------------------------------|
|-------------7-6--------------|
|-0-0-2-3-2-0-7-6--2-0-2-3-2-1-|
|-0-0-2-3-2-0-5-4--2-0-2-3-2-1-|
|-0-0-2-3-2-0------2-0-2-3-2-1-|




Quer fazer uma correção nesta cifra?







    Comentários (0) Postar um Comentário

    Nenhum comentário encontrado. Seja o primeiro!