Cifra da música: Pure Massacre - Silverchair

Esse cifra de Silverchair já foi acessado por 935 pessoas.

Comente

A música Pure Massacre fez muito sucesso quando foi gravada por Silverchair. Quer conhecer a letra dela? Veja a letra de Pure Massacre e cante.

Veja também o vídeo da música tocada.


'**Key**
x-palm mute
h-hammer
/-slide

**Tuning** Dropped-D (DADGBE)

--Notes--
I will only post the parts and chord progressions of the song.
It is a pretty simple song...


Fig. 1 Intro/verse (clean/distortion)
E|---------------------------------|
B|---------------------------------|
G|---0-2-2-2-1-1-0-0-0h2-2-2/5-5-5-|
D|-0---0-0-0-0-0-0-0-0-0-0-0/0-0-0-|
A|---------------------------------|
D|---------------------------------|

Fig. 2 verse-second part
E|-------------------------|
B|-------------------------|
G|-----------5-------------|
D|-0-3-0-3-0-5-0-3-0-3-5-7-|
A|-0-3-0-3-0-3-0-3-0-3-5-7-|
D|-0-3-0-3-0---0-3-0-3-5-7-|

Fig. 3 chorus
E|-------------------------------|
B|-------------------------------|
G|-7-7-x-x-5-5-x-x-7-7-x-x-10-10-|
D|-7-7-x-x-5-5-x-x-7-7-x-x-8--8--|
A|-5-5-x-x-3-3-x-x-5-5-x-x-8--8--|
D|-5-5-x-x-3-3-x-x-5-5-x-x-8--8--|
'pure massacre...'

Fig. 4 Bridge
E|------------------|
B|------------------|
G|-7-7--3-3--5-5----|
D|-7-7--3-3--5-5--5-|
A|-5-5--1-1--3-3--5-|
D|----------------5-|

_________________________________________________________



Quer fazer uma correção nesta cifra?







    Comentários (0) Postar um Comentário

    Nenhum comentário encontrado. Seja o primeiro!