Cifra da música: Bushleaguer - Pearl Jam

Esse cifra de Pearl Jam já foi acessado por 513 pessoas.

Comente

A música Bushleaguer fez muito sucesso quando foi gravada por Pearl Jam. Quer conhecer a letra dela? Veja a letra de Bushleaguer e cante.

Veja também o vídeo da música tocada.


Verso:  Repete aglumas vezes...
------------------------------------
------------------------------------
--4-4-4-----------------------------
--4-4-4---4-4----5-5-5---4-4--------
--2-2-2---4-4----5-5-5---4-4--------
----------2-2----3-3-3---2-2--------


---------------------------
---------------------------
--6-6----9-9---------------
--6-6----9-9---9-9---------
--4-4----7-7---9-9---------
---------------7-7---------


Riff: algo parecido com isso...

--------------------------------------------
--------------------------------------------
--------------------------------------------
--------9------------7------------6---------  ...
-----9-----9------9------9-----9-------9----
--7-----------7-------------7----------7----




'blackout weaves its way through the city...'
   ^
   ^
Nesta parte talvez se toque:  D & E
-----------------------------------
-----------------------------------
-------7-7-7----9-9-9--------------
-------7-7-7----9-9-9-------------- ...
-------5-5-5----7-7-7--------------
-----------------------------------


depois segue esta sequência


Verso;

Riff;

'blackout weaves its way through the city...'

Verso;

Verso;

finaliza com o baixo fazendo um riffzinho...



Quer fazer uma correção nesta cifra?







    Comentários (0) Postar um Comentário

    Nenhum comentário encontrado. Seja o primeiro!