Cifra da música: Wish List - Pearl Jam

Esse cifra de Pearl Jam já foi acessado por 1018 pessoas.

Comente

A música Wish List fez muito sucesso quando foi gravada por Pearl Jam. Quer conhecer as demais músicas? Conheça as letras das músicas gravadas por Pearl Jam e aproveite.

Veja também o vídeo da música tocada.


LEGENDA DA TABLATURA:

h = hammer-on
p = pull-off
/ = slide up
 = slide down
~ = hold/shake note

Progressão basica dos versos:

E|---------------------------------------------------------------
B|---------------------------------------------------------------
G|-0-0-0-0-0-0-0-0-0-0-0-0-0-0-0--0-0-0-0--0-0-0--0-0-0-0-0-0-0--
D|-2-2-0-0-2-2-0-0-2-2-0-0-2-2-0--3-3-3-3--3-3-0--2-2-0-0-2-2-0--
A|-3-3-3-3-3-3-3-3-3-3-3-3-3-3-3--3-3-3-3--3-3-3--3-3-3-3-3-3-3--
E|---------------------------------------------------------------


I wish I was a neutron bomb, for once I couldn't go off
I wish I was a sacrifice but somehow still lived on
I was a sentimental ornament you hung on
The Christmas tree, I wish I was the star that went on top

  F              C           F              C
I wish I was the evidence, I wish I was the grounds
    F             C                   G               F
For fifty million hands upraised that open toward the sky

Fill 1:

   C               F       C
E|-------------------------------------------------------
B|-------------------------------------------------------
G|-------5------2-/-5-/-7----7-/-9-/-5-------------------
D|-------------------------------------------------------
A|-------------------------------------------------------
E|-------------------------------------------------------


I wish I was a silhouette, someone who waited for me
I wish I was as fortunate, as fortunate as me
I wish I was a messenger and all the news was good
I wish I was the full moon shining off a Camaro's hood

SOLINHO:

          G      F         C           G           F              C

E|----------------------------------------------------------------
B|-------8-/-10-(10)-/-13-12---13-10-12-12--10-h-12-p-10--/-5-----
G|----------------------------------------------------------------
D|----------------------------------------------------------------
A|----------------------------------------------------------------
E|----------------------------------------------------------------

E|----------------------------------------------------------------
B|-------8-/-10-(10)-/-13-12---15-13-12------15-12-10-------------
G|--------------------------------------14------------12-/-9------
D|----------------------------------------------------------------
A|----------------------------------------------------------------
E|----------------------------------------------------------------



          G      F                    F           C

E|----------------------------------------------------------------
B|------8-/-10-(10)-/-13-12--13--12--10--8----13--12---5->->->->--
G|----------------------------------------------------------------
D|----------------------------------------------------------------
A|----------------------------------------------------------------
E|----------------------------------------------------------------


I wish I was an alien at home behind the sun
I wish I was the souvenir you kept your house key on

  F              C                F            C
I wish I was the pedal brake that you depended on
  F              C                   G             F
I wish I was the verb 'to trust' and never let you down

Fill 3: (Repete algumas vezes)

E|---------------------------------------|
B|---------------------------------------|
G|-7p9--7p9--7p9/5--7-/10~----/9~--------|
D|---------------------------------------|
A|---------------------------------------|
E|---------------------------------------|

  F            C               F                  C
I wish I was a radio song, the one you could turn up
  F             C
I wish, I wish, I wish, I wish
  G              F
I guess it never stops...

______________________________________________________________






Quer fazer uma correção nesta cifra?







    Comentários (0) Postar um Comentário

    Nenhum comentário encontrado. Seja o primeiro!